Incubus

Incubus - Quicksand guitar tab

Quicksand - Incubus

Intro

E----------------------------------------------------------|

B----------------------------------------------------------|

G-5p3-------5p3-------5p3------5-------5p3---------5p3-----|

D----------------------------------------------------------|

A-----3-3-------3-3----------------------------3-------3-3-|

E------------------------4-4-----4-4-------4-4-------------|

Verses

E---------------------|--------------------------------------|

B---------------------|--------------------------------------|

G-5p3-------5p3-----5-|o-----5p3------5p3-----5--------5p3---|

D---------------------|o-------------------------------------|

A---------------------|--3-------3-3-------------------------|

E-----4---------4-----|-------------------4------4-4-------4-|

E-------------------------------------------------------|

B-------------------------------------------------------|

G-----5p3-------5p3-------5p3-------5p3-------5p3------o|

D------------------------------------------------------o| X4

A-3-------3-3---------------------------------------3---|

E-------------------4---------4-4-------4-4-------4-----|

Chorus* X4 End.

E---------4-4-4-4-|------|

B-5-5-5-5-4-4-4-4-|-5----|

G-5-5-5-5-5-5-5-5-|-5----|

D-5-5-5-5-6-6-6-6-|-5----|

A-3-3-3-3-6-6-6-6-|-3----|

E---------4-4-4-4-|------|

*Chorus originally for piano, tabbed for guitar.

Lyrics:

OK now the monster is awake.

It won't rest until there's nothing left.

Maybe ever & anon

I forget about the pain.

Someone bending light comes along

& flowers lean towards the sun.

Some people fall in love & touch the sky

Some people fall in love & find quicksand.

I hover somewhere in between I swear

I can't make up my mind.Added by tabs-database.com and our distinguished partners

Get this song at:  amazon.com

Share your thoughts

0 Comments found