Incubus

Incubus - Privelege bass tab

Song: PRIVELEGE

Artist: INCUBUS

Tabbed by: ALEX (alex4715@aol.com)

Standard tuning EADG

/ = slide

h = hammer on

p = pull off

(#)= ghost note

|#|= play 1st and 3rd times

INTRO x4 (0:13)

G|-----------------------------|-----------------------------|

D|-----------------------------|-----------------------------|

A|----------5p3----------------|----------5p3----------------|

E|--5p3-(3)------5-5-(5)--2/3--|--5p3-(3)------|5|-5-5------|

VERSE x4 (0:33)

G|--------------------------------------------------------|

D|--------------------------------------------------------|

A|--------------------------------------------------------|

E|--5p3--(5)-3-3--5-(3)3-3--(5)-3-3-(3)-5-5---------------|

PRE CHORUS (0:54)

G|-----------------------------------|---------------------------------|

D|-----------------------------------|---------------------------------|

A|-----------------------------------|---------------------------------|

E|--0000----0000----0000----(2)0000--|--3-3----5-3-3-----3-3----5-3-3--|

CHORUS x4 (1:04)

G|-------------------------------------------------------|

D|-------------------------------------------------------|

A|-----------5p3----------------22222222-----------------|

E|--5p3-(3)-------7-5-(5)--2-3----------55-5-3-2---------|

CHORUS continued (1:09)

G|-------------------------------------------------------|

D|-------------------------------------------------------|

A|-----------5p3-----------------------------------------|

E|--5p3-(3)-------7-5-(5)--2-3--2-2--2--2-2--3-5---------|

Repeat Verse (1:39)

Repeat Pre Chorus (1:49)

Repeat Chorus (2:00)

INTERLUDE x4 (2:20)

G|-------------------------------------------------------|

D|-------------------------------------------------------|

A|-------------------------------------------------------|

E|--5p3--5-3--(5)5-3--5-3--3357--------------------------|

Repeat Pre Chorus (2:41)

Repeat Chorus x2 (2:50)

Repeat Interlude (3:31)

Get this song at:  amazon.com

Share your thoughts

0 Comments found