Incubus

Incubus - Pistola guitar tab

Band: Incubus

Song: Pistola

Tabber: Andrew Biles

Ok, I've worked this out from the 'Live at Lullapalooza' cd so parts are off

and I haven't quite worked out the solo yet.

|----------------------------------------

|----------------------------------------

|-------13-----13-------13------------13-

|----------0-0---------------------------

|----11----------------------------------

|-12--------------10-10----(10/)11-11----

The slide seems almost an accidental so that's why it's in brackets

Last time the riff is played going into the next riff, the bass note slightly changes to...

|-----------------------------------

|-----------------------------------

|-------13-----13-------13-------13-

|----------0-0----------------------

|----11-----------------------------

|-12--------------10-10----12-12----

I think it is right for the next part, something very similar if it's not

|----------------------------

|-------14-------14-------14-

|-------------13-------13----

|----11----11-------12-------

|-12-------------------------

|----------------------------

|----------------------------

|----------------------------

|-5--------------5-----------

|-5----7----7----5----7----2-

|-3----7----5----3----7----2-

|------5----3---------5----0-

I'm not totally sure about the third chord, to me it sounds like changes but not sure

|---

|---

|-3-

|-2-

|-1-

|---

play that chord over with a funk style rhythm

|----------------------------------------------

|----------------------------------------------

|----------------------------------------------

|----------------------------------------------

|-2-2-2-0-------2-2--2-2-2-0-------2p0-----2p0-

|---------4-2-0--------------4-2-0-----2p0-----

There's a wah solo here that I have no idea about, so improvise, or if you know

it, put it in the comments section please

at the end, you want to play the E power chord over when it's still distorted,

but then when it becomes clean play this chord

|---

|-5-

|-4-

|-2-

|-2-

|-0-

and that's the whole song (minus the solo).

any questions? andrewbiles@hotmail.com

Get this song at:  amazon.com

Share your thoughts

0 Comments found