Incubus

Incubus - Pantomime bass tab

No bass until this time

I aint afraid to let it outttt. I aint afraid to take that fall

Around 1:30

G----------------------------------------------

D----------------------------------------------

A-11-10-8-6-5-6-5------------------------------ x1

E----------------------------------------------

G----------------------------------------------

D----------------------------------------------

A-11--11-11-11-10-8-888-6-666-5-55-6-66-5-55--- x1

E----------------------------------------------

Pause

Nothing at.. ooooooo oooo ooo

Around 2:20

G--------------------------------------

D--------------------------------------

A-------------------------------------- x1

E-4-x-4-x-3-x-3-x-4-x-4-x-1-1-11-------

G--------------------------------------------------

D--------------------------------------------------

A-------------------------------------------------- x1

E-4--4-4-4-4-6--6-6-6-6-8--8-8-8-8-10--10-10-10-10-

Chorus

G---------------------------------------------

D---------------------------------------------

A---------------------------------------------

E-6--6-6-6-6-6--6-6-6-6-6--6-6-6-6-6--6-6-6-6-

Add crazy fills and stuff because

G--------------------------------------------- It’s different every time

D---------------------------------------------

A---------------------------------------------

E-4--4-4-4-4-4--4-4-4-4-4--4-4-4-4-4--4-4-4-4-

Around 3:00

G---------------------------------------------

D---------------------------------------------

A---------------------------------------------

E-6--6-6-6-6-6--6-6-6-6-6--6-6-6-6-6--6-6-6-6-

G---8-8-8-8-8-8-88888888--

D---6-6-6-6-6-6-66666666--

A---8-8-8-8-8-8-88888888--

E---8-8-8-8-8-8-88888888--

Outro

G---------------------------------------------

D---------------------------------------------

A--------8~-----------------------------------

E-6~------------6~-----4~---------------------

Get this song at:  amazon.com

Share your thoughts

0 Comments found