Incubus

Incubus - Nowhere Fast guitar tab

I was looking for Incubus tabs and the ones I found are crap. So I did

it myself and I know its right.

Droped D tuning

Effects: Phasor, Delay, Distortion

Intro:

(with phasor)

e:-----------------------------

B:-----------------------------

G:--0-0------------------------

D:------4-4--------------------

A:----------0-0-----3333/8888--

D:--------------0-0-3333/8888--

Chorus:

(with distortion)

e:--------------------- e:---------------------

B:--7~----------------- B:--7~-----------------

G:--6~----------------- G:--6~------5555-------

D:--0-00-00-3333/8888-- x3 then D:--0-00-00-5555-3333--

A:--0-00-00-3333/8888-- A:--0-00-00-3333-3333--

D:--0-00-00-3333/8888-- D:--0-00-00------3333--

Verse:

(with phasor and delay)

makes sure to not let the notes ring except for when it is shown to let

them ring, palm mute them right after you strike it

e:------14------------14------------------

B:----------------------------------------

G:--11------14---------11------14~15~16~--

D:--11------14--16h17--11------14~15~16~--

A:----------------------------------------

D:----------------------------------------

Bridge:

(with phasor and delay)

fade the notes in with your volume nob (this sounds really good with

the delay)

e:---------------------------------------------

B:---------------------------------------------

G:---------------------------------------------

D:--5

Get this song at:  amazon.com

Share your thoughts

0 Comments found