Incubus

Incubus - Megalomanic guitar tab

INTRO

E---------------------------------------------------

B---------------------------------------------------

G--0--0--0--0--0--0--0------------------------------

D--5--5--5--5--5--5^-5------------------------------

A---------------------------------------------------

E--------------------------------------------------- 3 times

E---------------------------------------------------

B---------------------------------------------------

G--0--0--0--0-----0---------------------------------

D--5--5--5--5^----5^--------------------------------

A---------------------------------------------------

E---------------------------------------------------

riff changes into this

E---------------------------------------------------

B---------------------------------------------------

G--0----0--0----0--0---------0--0--------0----------

D--3/5--5--5/8--8--8--0------8--8--8--8--8--0-------

A------------------------6---6--6--6--6--6----------

E---------------------------------------------------

play above 4x then play this variation

E---------------------------------------------------

B---------------------------------------------------

G--0----0--0----0--0---------0--0--------0----------

D--3/5--5--5/8--8--8--0------8--8--8--8--8--0-------

A------------------------6---6--6--7--7--7----------

E---------------------------------------------------

Then play the chorus riff 4 times:

E---------------------------------------------------

B---------------------------------------------------

G--------------------------8-8-8--3-3-3-------------

D--5----3--5---5/8--8--x---8-8-8--2-2-2-------------

A--5----3--5---5/8--8--x---6-6-6--3-3-3-------------

E--3----1--3---3/6--6--x----------------------------

VERSE 1

E--------------------------------------1---------------------3---------

B----------6---------------------3--------3------------6--------6---6--

G-------0--------------------------------------------------------------

D--3/5-----------------------------------------------------------------

A-----------------------------3-----3--------3/6----6-----6-------6----

E----------------------------------------------------------------------

I hear you on the radio

E--------------------------------------3---------------------1---------

B--0-------0---------------------6--------6------------3--------3---3--

G--0-------0-----------------------------------------------------------

D--53--3--3^-----------------------------------------------------------

A-----------------------------6-----6--------63----3-----3-------3-----

E----------------------------------------------------------------------

You burn me in my skin, it's unkind but

E--------------------------------------1---------------------3---------

B--0-------6---------------------3--------3------------6--------6---6--

G--0----0--------------------------------------------------------------

D--3/5-----------------------------------------------------------------

A-----------------------------3-----3--------3/6----6-----6-------6----

E----------------------------------------------------------------------

If I met you in a scissor fight

E--------------------------------------3---------------------1---------

B--0-------0---------------------6--------6------------3--------3---3--

G--0-------0---------0-------------------------------------------------

D--53--3--3^------1----------------------------------------------------

A----------------2------2-----6-----6--------63----3-----3-------3-----

E--------------------------3-------------------------------------------

I'd cut off both your wings on principle alone

E---------------------------------------------------

B----------------------------8--8--------8----------

G--0----0--0----0--0---------0--0--------0----------

D--3/5--5--5/8--8--8--0------8--8--8--8--8--0-------

A------------------------6---6--6--7--7--7----------

E---------------------------------------------------

On principle alone

E---------------------------------------------------

B---------------------------------------------------

G--0----0--0----0--0-------8-8-8--3-3-3-------------

D--3/5--5--5/8--8--8--0----8-8-8--2-2-2-------------

A--------------------------6-6-6--3-3-3-------------

E---------------------------------------------------

CHORUS

E---------------------------------------------------

B---------------------------------------------------

G--------------------------8-8-8--3-3-3-------------

D--5----3--5---5/8--8--x---8-8-8--2-2-2-------------

A--5----3--5---5/8--8--x---6-6-6--3-3-3-------------

E--3----1--3---3/6--6--x----------------------------

you're no Jesus...

VERSE 2

This riff is like a bridge really, verse 2 starts right after this

E---------------0---0---0--------------3---------------------1---------

B----------6------6---6---6------6--------6------------3--------3---3--

G-------0--------------------------------------------------------------

D--3/5-----------------------------------------------------------------

A-----------------------------6-----6--------63----3-----3-------3-----

E----------------------------------------------------------------------

[--Flanged--]

Start of verse:

E--------------------------------------1---------------------3---------

B----------6---------------------3--------3------------6--------6---6--

G-------0--------------------------------------------------------------

D--3/5-----------------------------------------------------------------

A-----------------------------3-----3--------3/6----6-----6-------6----

E----------------------------------------------------------------------

E--------------------------------------3---------------------1---------

B--0-------0---------------------6--------6------------3--------3---3--

G--0-------0-----------------------------------------------------------

D--53--3--3^-----------------------------------------------------------

A-----------------------------6-----6--------63----3-----3-------3-----

E----------------------------------------------------------------------

E---------------0---0---0--------------1---------------------3---------

B--0-------6------6---6---6------3--------3------------6--------6---6--

G--0----0--------------------------------------------------------------

D--3/5-----------------------------------------------------------------

A-----------------------------3-----3--------3/6----6-----6-------6----

E----------------------------------------------------------------------

[--Flanged--]

E--------------------------------------3---------------------1---------

B--0-------0---------------------6--------6------------3--------3---3--

G--0-------0---------0-------------------------------------------------

D--53--3--3^------1----------------------------------------------------

A----------------2------2-----6-----6--------63----3-----3-------3-----

E--------------------------3-------------------------------------------

...And there was never meant to be only one

E---------------------------------------------------

B----------------------------8--8--------8----------

G--0----0--0----0--0---------0--0--------0----------

D--3/5--5--5/8--8--8--0------8--8--8--8--8--0-------

A------------------------6---6--6--7--7--7----------

E---------------------------------------------------

To be only one

E---------------------------------------------------

B---------------------------------------------------

G--0----0--0----0--0-------8-8-8--3-3-3-------------

D--3/5--5--5/8--8--8--0----8-8-8--2-2-2-------------

A--------------------------6-6-6--3-3-3-------------

E---------------------------------------------------

CHORUS:

Same as before but double length,

This is the part with no lyrics, play it twice

E-----------10---------10---------10-----------------------------------

B--------13---------13---------13----13----13--------------------------

G-----10---------10---------10----------10----10-----------------------

D----------------------------------------------------------------------

A----------------------------------------------------------------------

E----------------------------------------------------------------------

E-----------10---------10---------10---------------|-------------------

B--------13---------13---------13----13----13------|-------------------

G--10-12---------12---------12----------12----12---|-------------------

D--------------------------------------------------|--12p10------------

A--------------------------------------------------|-------------------

E--------------------------------------------------|-------------------

Then this kind of a solo, repeat like this:

-Part A 3x

-Part B

-Part A 4x with flanger

Part A

E----------------------------------------------------------------------

B---------------------------------------------------10-----------------

G--12--12--10--12-----12--10--12----12--12--10--12------12--10---------

D--10--10--10--10-----10--10--10----10--10--10--10------10--10---------

A----------------------------------------------------------------------

E----------------------------------------------------------------------

You're no Jesus,

Part B

E-----------------------------------10--10--10-------------------------

B-----------------------------------10--10--10------10-----------------

G--12--12--10--12-----12--10--12----12--12--12--12------12--10---------

D--10--10--10--10-----10--10--10----10--10--10--10------10--10---------

A----------------------------------------------------------------------

E----------------------------------------------------------------------

This comes right before the last Chorus

E--------------------------------------------------

B--------------------------------------------------

G--------------------------------------------------

D--5-5-5-5-5-5-5-5-5-5-5-5-5-5-5-5-----------------

A--------------------------------------------------

E--------------------------------------------------

Tabbed by joel

Get this song at:  amazon.com sheetmusicplus.com

Share your thoughts

0 Comments found