Incubus

Incubus - Make Yourself bass tab

From: Cessac710@aol.com

Date: Mon, 29 Jul 2002 21:26:41 EDT

Subject: i/incubus/make_yourself.btab

Song : Make Yourself

Artist : Incubus

Album : Make Yourself 1999 Immortal/Epic

Tabbed By : Joey Cessac (Cessac710@aol.com)

Tune : Normal

Me and my lead-guitarist tabbed this out from our own work. This is my first

tab, and im certian its very accurate, so enjoy.

Verse/Prechorus/Outro (bass doesn't kick in until drums do in first

verse)

G : ----------------------------------------------

D : ----------------------------------------------

A : ---------------------------------------------

E : ------7---33---33---6-------7---33----33--66

(still in first verse), then back to verse

G : -----------------------------------

D : ----------------------------------

A : ----555555----11111---------

E : --------------------------3333----

Chorus

'You should.....'

G : --------------------------

D : -------------------------

A : ------5------1----------

E : ---------------------3---

'If only....'

G : ---------------------------

D : ---------------------------

A : ----5------1--------------

E : ----------------3-----1---

'But if you....'

G : --------------------------

D :----------------------------

A : ------5----1-------------3

E :--------------------3--------

'Why not.....'

G : --------------------------

D : ----------------------------

A : -----5----1---------------

E : -----------------3----1----

(First part of second verse, then back to verse part at top)

G : --------------------------

D : ---------9------------------

A : ----9-----------7-----------

E : ----------------------6-----

Very easy song to play, hope it works out.

Get this song at:  amazon.com

Share your thoughts

0 Comments found