Incubus

Incubus - Incubus-redefine bass tab

Intro:

G|---------------------------------------------------------|

D|---------------------------------------------------------|

A|---------------------------------------------------------|

E|-----0--0--0-----0--0--0-----0--0--0--0--0-0-0-0-3-3-3-3-|

G|---------------------------------------------------------|

D|---------------------------------------------------------|

A|---------------------------------------------------------|

E|-0-44-0-44-0-44-0-44-0-44-0-44-0-44-5-4-0-4-0-44-0-44-0-44

-o-44-0--0--0--0--0-0-0-0-3-3-3-3(REPEAT X2)

Verse:

G|---------------------------------------------------------|

D|---------------------------------------------------------|

A|---7---7-5--5-7-7--------5----8--------------------------|

E|---------------------5-6---6-----------------------------|

(REPEAT X4)

Chorus:

G|---------------------------------------------------------|

D|---------------------------------------------------------|

A|---------------------------------------------------------|

E|-0-44-0-44-0-44-0-44-0-44-0-44-0-44-5-4-0-4-0-44-0-44-0-44

-o-44-0--0--0--0--0-0-0-0-3-3-3-3(REPEAT X2)

Get this song at:  amazon.com

Share your thoughts

0 Comments found