Incubus

Incubus - I Miss You bass tab

Artist: Incubus

Song: I miss you

Album: make yourself

Originally tabbed by mr_sucubus@yahoo.com, corrected by Saskatoon2@aol.com

Mr_sucubus had the song right except on the verse he didn't have all of the G's

(5th fret) you play on the D string. Anyone could've figured that out but I fixed

it anyway. I also added in the strings in standard tuning. Have fun!

It's a very easy song to play.

Verse: You'll have to listen to the song to find out how many times to play this.

It's a bunch and I wasn't about to count em all up.

G--------------------------------------------------------

D------5------------5---------------5-----------5----------

A-5-----------5----------------5---------5---------------

E--------------------------------------------------------

Chorus:

G--------------------------------------------------------

D--------------------------------------------------------

A-2--2-2--------------5--5-5--5--5-5--------------------- 2Xs

E-----------3--3-3---------------------------------------

G----------------------------------------------------------------------

D-------------------------------------------------------5--5-5--5--5-5-

A-2--2-2------------5--5-5--2-22---------------------------------------

E---------3--3-3---------------------3-3-3--3--3-3---------------------

Get this song at:  amazon.com

Share your thoughts

0 Comments found