Incubus

Incubus - Hilikus guitar tab

INTRO

E --9---9-X-99--X-9--9-9-X-X--9---9-X-99--X-12X12-12---9---9-X-99--X-9-9-7-----9-

B --8---8-X-88--X-8--9-8-X-X--8---8-X-88--X-9-X9--9-X--8---8-X-88--X-8-8-8-----8-

G --9---9-X-99--X-9--9-9-X----9---9-X-99--X-9-X9--9-X--9---9-X-99--X-9-9-9-----9-

D -------------------------------------------------------------------------------

A -------------------------------------------------------------------------------

E -------------------------------------------------------------------------------

E --9---9-X-99--X-9--9-9-X-X--9---9-X-99--X-12X12-12---9---9-X-99--X-9-9-7---------

B --8---8-X-88--X-8--9-8-X-X--8---8-X-88--X-9-X9--9-X--8---8-X-88--X-8-8-8---------

G --9---9-X-99--X-9--9-9-X----9---9-X-99--X-9-X9--9-X--9---9-X-99--X-9-9-9-----7-7-

D -----------------------------------------------------------------------------7-7-

A -----------------------------------------------------------------------------5-5-

E -----------------------------------------------------------------------------5-5-

--------------------------

--------------------------

--8-8---------7-7--8-8---- X3

--8-8---------7-7--8-8----

--6-6---------5-5--6-6----

--6-6---------5-5--6-6----

PRECORO

E --5-X-5--5-5-X--8--X-8-8-

B --4-X-4--4-4-X--7--X-7-7-

G --5-X-5--5-5-X--8--X-8-8- X4

D -------------------------

A -------------------------

E -------------------------

CORO

E -------------------------------

B -------------------------------

G -------------------------------

D ---7--7----7--10-10--X-X--X-X-- X3

A ---7--7----7--10-10--X-X--X-X--

E ---5--5----5---8--8--X-X--X-X--

E ------------------------------------------

B ------------------------------------------

G ------------------------------------------

D ---7--7----7--10-10----------------------- X5

A ---7--7----7--10-10-----------------------

E ---5--5----5---8--8---0-2--0-3--0-4-------

Get this song at:  amazon.com sheetmusicplus.com

Share your thoughts

0 Comments found