Incubus

Incubus - Glass Bass guitar tab

this is my first incubus song trying to learn by ear so it might be bad or it might be

But check it out.

/=slide b=bend

INTRO/Verse 1

G|-----------------------------------------|

D|-------------------3-5--------------3-5--|

A|------------00-3-5-----0-----00-3-5-----0|

E|--------5/---------------5/--------------|

The Part Before The Verse

G|------------|

D|------------|

A|---5-5-----5|

E|-------5-5--|

Pre-Chorus

G|-------------------|

D|-------------------|

A|-------------------|

E|55555555-7777-6666-|

Chorus

G|-------------------------------------------------------------|

D|-------------------------------------------------------------|

A|----------------------3-5---------------3h55555555--5h777-999| x2

E|---5--5-5-5----5-5-5--------5--5-5-5-------------------------|

Verse 2

G|------------------------------------------------------------|

D|-------------------3-5--------------3-5---------------------|

A|------------00-3-5-----0-----00-3-5-----0--5-5---5---6-6---6|

E|--------5/---------------5/--------------------5---------6--|

Pre-Chorus

Chorus

Bridge

G|------------------------------------------|

D|------------------------------------------|

A|-----------------------------------------5|

E|------5b5-5-5--5b5-5-5--5b5-5-5--5b5-5-5--|

Bridge 2

G|-----------------------|

D|-----------------------|

A|-----------------------| Those are 16 5's and i dont know the correct

E|--5555555555555555-----| amount of times you play each of these parts

but I hope it helped you out alot.

The Ending is just Verse 1Added by tabs-database.com and our distinguished partners

Get this song at:  amazon.com

Share your thoughts

0 Comments found