Incubus

Incubus - Glass-6 String bass tab

tabbed by: Lee (blacktooth90™)

Riff 1

G----------------------

D----------------------

A-14/*--------0h4-5-6-7

E--------7/------------

B----------------------

*Slide is played first time only right after drums start. Just listen

Riff 1a

G--------------

D--------------

A--------7--7--

E--5-5-5------5

B--------------

Riff2

G--------------------------------

D--------------------------------

A-0-0-0-0-0-0-0-0-3-3-3-3-3-3-2-2

E--------------------------------

B--------------------------------

Chorus

G----------------

D----------------

A-2---2---0--3---

E----------------

B---0---0-------0

ChorusA

G---------------2-2--

D-0-2-2--4-4-4-------

A-------------------0

E--------------------

B--------------------

Interlude

G-------------------------------------------------

D------------------------------------------------3

A-2h3-2-0h2p0--2h3-2-0h2p0--2h3-2-0h2p0--2h3-2-2--

E-------------------------------------------------

B-------------------------------------------------

Int. Variation

G----------------------------------------------------

D-----------------------------------------3-3---3---3

A-2h3-2-0h2p0--2h3-2-0h2p0--2h3-2-0h2p0-------3---3--

E----------------------------------------------------

B----------------------------------------------------

Bridge

G---------------------------------

D---------------------------------

A-2-2-2-2-2-2-2-2-2-2-2-2-2-2-2-2-*

E---------------------------------

B---------------------------------

*Could be on the low B, I just cant compare because I'm working with a four

string

End of Bridge

G-----------

D-----------

A-2-----2---

E----2-----2

B-----------

Ending Chorus Variation

G-0-2-2--0-0-0------------------

D--------------4-4-4--2-2-2-0---

A------------------------------2

E-------------------------------

B-------------------------------

Get this song at:  amazon.com sheetmusicplus.com

Share your thoughts

0 Comments found