Incubus

Incubus - Freedom guitar tab

Artist: Incubus

Title: Freedom(Joey Guns Style)

Intro

e|----------------------------------------------------------

B|----------------------------------------------------------

G|----------------------------------------------------------

D|----------------------------------------------------------

A|-----9------/------7------/------5------/------7----------

E|--7-----7---p---5-----5---p---3-----3---p---5-----5---/---

e|----------------------------------------------------------

B|----------------------------------------------------------

G|----------------------------------------------------------

D|--------9--/--------7--/--------5--/--------7--/---------- x2

A|-----9-----/-----7-----/-----5-----/-----7-----/----------

E|--7-----------5-----------3-----------5-------------------

e|----------------------------------------------------------

B|----------------------------------------------------------

G|----------------------------------------------------------

D|--9---7-7-7-7-7-7-7-7/5---7-7-7-7-7-7-7-7/---------------- x4

A|--9---7-7-7-7-7-7-7-7/5---7-7-7-7-7-7-7-7/----------------

E|--7---5-5-5-5-5-5-5-0h3---5-5-5-5-5-5-5-0h----------------

Verse 1

e|----------------------------------------------------------

B|----------------------------------------------------------

G|----------------------------------------------------------

D|--9---7-7-7-7----5---7-7-7-7------------------------------ x4

A|--9---7-7-7-7----5---7-7-7-7------------------------------

E|--7---5-0-5-0----3---5-0-5-0------------------------------

Chorus 1

e|----------------------------------------------------------

B|----------------------------------------------------------

G|----------------------------------------------------------

D|--9---7-7-7-7-7-7-7-7/5---7-7-7-7-7-7-7-7/---------------- x4

A|--9---7-7-7-7-7-7-7-7/5---7-7-7-7-7-7-7-7/----------------

E|--7---5-5-5-5-5-5-5-0h3---5-5-5-5-5-5-5-0h----------------

Verse 2

e|----------------------------------------------------------

B|----------------------------------------------------------

G|----------------------------------------------------------

D|--9---7-7-7-7----5---7-7-7-7------------------------------ x4

A|--9---7-7-7-7----5---7-7-7-7------------------------------

E|--7---5-0-5-0----3---5-0-5-0------------------------------

Chorus 2

e|----------------------------------------------------------

B|----------------------------------------------------------

G|----------------------------------------------------------

D|--9---7-7-7-7-7-7-7-7/5---7-7-7-7-7-7-7-7/---------------- x4

A|--9---7-7-7-7-7-7-7-7/5---7-7-7-7-7-7-7-7/----------------

E|--7---5-5-5-5-5-5-5-0h3---5-5-5-5-5-5-5-0h----------------

Interlude

e|----------------------------------------------------------

B|----------------------------------------------------------

G|-----------9--/---------7--/--------5---------------------

D|--------9------------7-----------5------------------------

A|-----7------------5------------3--------------------------

E|--7------------5------------3-----------------------------

e|----------------------------------------------------------

B|----------------------------------------------------------

G|--9--9--9-9-9---7--7--7-7-7---5--5--5-5-5---7--7--7-7-7---

D|--9--9--9-9-9---7--7--7-7-7---5--5--5-5-5---7--7--7-7-7---

A|--7--7--7-7-7---5--5--5-5-5---3--3--3-3-3---5--5--5-5-5---

E|--7--7--7-7-7---5--5--5-5-5---3--3--3-3-3---5--5--5-5-5---

Solo

e|----------------------------------------------------------

B|----------------------------------------------------------

G|--9-9-9-9-9-9-9-9-9-9--/--7-7-7-7--/-5-5-5-5--/-7-7-7-7---

D|--9-9-9-9-9-9-9-9-9-9--/--7-7-7-7--/-5-5-5-5--/-7-7-7-7--- x4

A|--7-7-7-7-7-7-7-7-7-0--h--5-5-5-0--h-3-3-3-0--/-5-5-5-5---

E|--7-7-7-7-7-7-7-7-7-0--h--5-5-5-0--h-3-3-3-0--/-5-5-5-5---

e|----------------------------------------------------------

B|----------------------------------------------------------

G|--9-9-9-9----7-7-7-7----5-5-5-5---------------------------

D|--9-9-9-9----7-7-7-7----5-5-5-5--------------------------- x4

A|--7-7-7-7----5-5-5-5----3-3-3-3-----5/7/9-----------------

E|--7-7-7-7----5-5-5-5----3-3-3-3-----3/5/7-----------------

Ending

e|----------------------------------------------------------

B|----------------------------------------------------------

G|----------------------------------------------------------

D|---------------------------------------------------------- x7

A|------9---------7---------5----------7--------------------

E|--7---------5---------3----------5------------------------

On the Eigth

e|----------------------------------------------------------

B|----------------------------------------------------------

G|---------------------------------5-5----------------------

D|---------------------------------3-3----------------------

A|------9---------7---------5------3-3----------------------

E|--7---------5---------3-----------------------------------

Get this song at:  amazon.com sheetmusicplus.com

Share your thoughts

0 Comments found