Incubus

Incubus - Favorite Things bass tab

Song: Favorite Things

Artist: Incubus

Album: S.C.I.E.N.C.E.

Tabbed by Spooney (spoonbass@users.basstabarchive.com)

This is correction of my previous tab, namely the fast break part. It is

hard to hear the bass in the verse, which is why I have included a variation

which follows the guitar. If you have a copy of When Incubus Attacks, you

can hear the bass much better than on the record.

Main riff (also played through the verse)

G|-----------------------------------------------------------|

D|-----------------------------------------------------------|

A|-0---0-1---1------------------0---0-1---1------------------|

E|---0-----1---5555-5-0-1-2-3-4---0-----1---6666-6-0-1-2-3-4-|

Main riff variations

G|-----------------------------------------------------------|

D|-----------------------------------------------------------|

A|-0---0-1---1------------------0---0-1---1------------------|

E|---0-----1---5555-5-0-xxxxxxx---0-----1---6666-6-0-xxxxxxx-|

G|-------------------------------------------------------|

D|-------------------------------------------------------|

A|-0---0-1---1----------------0---0-1---1----------------|

E|---0-----1---5555-5-3-333-3---0-----1---6666-6-3-333-3-|

Fast break

G|-----------------------|

D|-----------------------|

A|---------77------88----|

E|-5555-66----6666----77-|

Chorus

G|------------------------|------------------------|

D|------------------------|------------------------|

A|------/8-88-----------8-|------/8-88-------------|

E|-5-55-------5-5-6-66/---|-5-55-------5-5-6-6-66--|

Slow down riff (after the first chorus)

G|------------------------------------------|

D|------------------------------------------|

A|-5---55---4---44---3---33---1---11-(hold)-|

E|---5----5---4----4---3----3---1-----------|

Get this song at:  amazon.com

Share your thoughts

0 Comments found