Incubus

Incubus - Anti-Gravity Love Song guitar tab

Title: Anti-Gravity Love Song

Album: S.C.I.E.N.C.E.

Transcribed by: Justin Adair

Email: Cryptic102@aol.com

-----------------------------------------------|------------------------------

-----------------------------------------------|------------------------------

-----------------------------------------------|------------------------------

-----------------------------------------------|------------------------------

--2h5--2-x-0h2------------2h5--2-x-0h2---------|-0h2--------------------------

---------------x-2-2h5-----------------x-3-3h5-|-------0h2--2h3--3h5----------

repeat bridge(4 bass)

--7-10-7---------------------------------10--10--------7-------------------10-

-------------------------------------------------------7---------------12-----

----------9--7----------6h7p6-------7/9--7---7---------7-------------------7--

----------------9--76---------7-6---------------------9---------------9------

------------------------------------------------------------------------------

------------------------------------------------------------------------------

Interlude verse

-12---12/14--12---10/12--10-------------7---7-7---7----7----7---------|-------

-----------------------------12---------7---7-7---7----7----7---------|-------

-9----9/11---9-----7/9---7--------------7---7-7---7----7----7---------|-------

------------------------------9---------9---9-9---9----9----9---------|-------

----------------------------------------------------------------------|-------

----------------------------------------------------------------------|-------

(----get funky----------) repeat

---7-------5-----------------|------------------------------------------------

---8-------7------5----7-----|------------------------------------------------

---7-------6------6----7-----|------------------------------------------------

---9-------7------5----7-----|------------------------------------------------

---7-------5-----------------|------------------------------------------------

------------------6----7-----|------------------------------------------------

chorus uses these chords el repeate

Get this song at:  amazon.com

Share your thoughts

0 Comments found