Incubus

Incubus - Agoraphobia guitar tab

Band:Incubus

Song:Agoraphobia

Album:A Crow left of Murder

Tabbed by:Reinaldo Gonzalez

Effects:Phaser, Distortion, Delay

Standard Tuning (EADGBe)

Intro: (Delay+ligth distortion)

e|-----------------------------------|

B|----0--------------0---------------|

G|------------------------------0----|

D|------7------3-0-----7----3-3------|

A|--5--------------5-----------------| X4

E|---------1-1------------1----------|

Verse: (Ligth distortion)

e|-----------------------------------|

B|----0--------------0---------------|

G|------------------------------0----|

D|------7------3-0-----7----3-3------|

A|--5--------------5-----------------| X8

E|---------1-1------------1----------|

And them!

e|-----------------------------------|

B|-----------------------------------|

G|-----------------------------------|

D|----4--------3-0---4------3-3-0----|

A|------5--------------5-------------| X8

E|--3------1-1-----3------1----------|

Pre-chorus: (Ligth distortion)

e|--------------------------------------|

B|-------8------------------------------|

G|-----5--------0-----------------------|

D|----------------0----3-3-3333---------|

A|----------6-6--------3-3-3333---------|

E|---8-----------------1-1-1111---------|

Chorus: (Phaser+ligth distortion)

e|----------------------------------------|

B|----------------------------------------|

G|--------------------------0-------------|

D|------0-----5-----3----------3---3------|

A|----5-----6---6-----5-------------------|

E|--3-----6-------6-----6--------6--------|

e|----------------------------------------|

B|-------------------------0--------------|

G|----------------------------------------|

D|------0-----5-----3--------7------------|

A|----5-----6---6-----5---5----9----9-----|

E|--3-----6-------6-----6--------10-------|

e|----------------------------------------|

B|----------------------------------------|

G|--------------------------0-------------|

D|------0-----5-----3----------3---3------|

A|----5-----6---6-----5-------------------|

E|--3-----6-------6-----6--------6--------|

e|-------------------------------------|

B|-------------------------------------|

G|-------------------------------------|

D|------0-----5-----3------3-----------|

A|----5-----6---6-----5----3-----------|

E|--3-----6-------6-----6--1-----------|

Bridge

e|-------------------------------|

B|-------------------------------|

G|---7--7--8--5--------5--5--3---|

D|---x--x--6--x-8-8--8-x--5--3---|

A|---x--x--6--6-6-6--6-6--3--1---|

E|---6--6-------6-6--6----3--1---|

And them!

e|------------------------------|

B|------------------------------|

G|---7--7--8--5--------5--5-----|

D|---x--x--6--x-8-8--8-x--5-6---|

A|---x--x--6--6-6-6--6-6--3-6---| X2

E|---6--6-------6-6--6------4---|

e|------------------------|

B|------------------------|

G|---7--7--8--5--------5--|

D|---x--x--6--x-8-8--8-x--|

A|---x--x--6--6-6-6--6-6--|

E|---6--6-------6-6--6----|

Post-Bridge: (Clean)

e|----------------------------------------|

B|----------------------------------------|

G|--------------------------0-------------|

D|------0-----5-----3----------3---3------|

A|----5-----6---6-----5-------------------|

E|--3-----6-------6-----6--------6--------|

And them!

e|----------------------------------------|

B|-------------------------0--------------|

G|----------------------------------------|

D|------0-----5-----3--------7------------|

A|----5-----6---6-----5---5----9----9-----| X2

E|--3-----6-------6-----6--------10-------|

Outro: (Phaser+ligth ditortion)

e|----------------------------------------|

B|----------------------------------------|

G|--------------------------0-------------|

D|------0-----5-----3----------3---3------|

A|----5-----6---6-----5-------------------|

E|--3-----6-------6-----6--------6--------|

And them!

e|----------------------------------------|

B|-------------------------0--------------|

G|----------------------------------------|

D|------0-----5-----3--------7------------|

A|----5-----6---6-----5---5----9----9-----| X2

E|--3-----6-------6-----6--------10-------|

And them!

e|----------------------------------------|

B|----------------------------------------|

G|--------------------------0-------------|

D|------0-----5-----3----------3---3------|

A|----5-----6---6-----5-------------------|

E|--3-----6-------6-----6--------6--------|

e|-------------------------------------|

B|-------------------------------------|

G|-------------------------------------|

D|------0-----5-----3------3-----------|

A|----5-----6---6-----5----3-----------|

E|--3-----6-------6-----6--1-----------|

Good song!!!

Get this song at:  amazon.com sheetmusicplus.com

Share your thoughts

0 Comments found