Incubus

Incubus - A Crow Left Of The Murder (acoustic) guitar tab

Incubus - A Crow Left of the Murder (Acoustic)

Album: A Crow Left of the Murder

Tabbed by: TheTuneman (1/20/04)

This tab is the whole song played straight through with a couple

of repeats. Tabbed from the Bridge School Show. Comments are

appreciated.

E|----------------------------------------------------------------

B|----------------------------------------------------------------

G|---------------------------------------------------------------- X2

D|--------9-------9----------------------------------------------

A|---9-11----11-9-11---------2-----------------------------------

E|-0--------------------0-2-4---4-2-4-----------------------------

E|----------------------------------------------------------------

B|----------------------------------------------------------------

G|----------------------------------------------------------------

D|--------13-------13--------------------------------------------

A|---9-11-----11-9-11---------6----------------------------------

E|-0---------------------0-2-4---4-2-4----------------------------

E|----------------------------------------------------------------

B|----------------------------------------------------------------

G|----------------------------------------------------------------

D|--------9-------9-----4--444-2-------9--9----9-----------------

A|---9-11----11-9-11---040-444-2--9-11----11-9-11---------2------

E|-0--------------------020-222-0--------------------0-2-4---4-2-4

E|----------------------------------------------------------------

B|----------------------------------------------------------------

G|----------------------------------------------------------------

D|--------9--9----9-----------------------------------------------

A|---9-11----11-9-11---------2------------------------------------

E|-0-------------------0-2-4---4-2-4------------------------------

E|----------------------------------------------------------------

B|----------------------------------------------------------------

G|----------------------------------------------------------------

D|--------13--13---13---------------------------------------------

A|---9-11-----11-9-11---------6-----------------------------------

E|-0--------------------0-2-4---4-2-4-----------------------------

E|----------------------------------------------------------------

B|----------------------------------------------------------------

G|----------------------------------------------------------------

D|--------9--9----9-----4--444-2-------9--9----9------------------

A|---9-11----11-9-11---040-444-2--9-11----11-9-11---------2-------

E|-0-------------------020-222-0--------------------0-2-4---4-2-4-

E|----------------------------------------------------------------

B|----------------------------------------------------------------

G|----------------------------------------------------------------

D|--------9--9----9-----------------------------------------------

A|---9-11----11-9-11---------2------------------------------------

E|-0-------------------0-2-4---4-2-4------------------------------

E|----------------------------------------------------------------

B|----------------------------------------------------------------

G|----------------------------------------------------------------

D|--------13--13---13---------------------------------------------

A|---9-11-----11-9-11---------6-----------------------------------

E|-0--------------------0-2-4---4-2-4-----------------------------

E|----------------------------------------------------------------

B|----------------------------------------------------------------

G|----------------------------------------------------------------

D|--------9--9----9-----4--444-2-------9--9----9------------------

A|---9-11----11-9-11---040-444-2--9-11----11-9-11---------2-------

E|-0-------------------020-222-0--------------------0-2-4---4-2-4-

E|----------------------------------------------------------------

B|----------------------------------------------------------------

G|----------------------------------------------------------------

D|--------9--9----9-----------------------------------------------

A|---9-11----11-9-11---------2------------------------------------

E|-0-------------------0-2-4---4-2-4------------------------------

E|----------------------------------------------------------------

B|----------------------------------------------------------------

G|----------------------------------------------------------------

D|--------13--13---13---------------------------------------------

A|---9-11-----11-9-11---------6-----------------------------------

E|-0--------------------0-2-4---4-2-4-----------------------------

E|----------------------------------------------------------------

B|----------------------------------------------------------------

G|----------------------------------------------------------------

D|--------9--9----9------4-4--------------------------------------

A|---9-11----11-9-11---0-4-4--------------------------------------

E|-0-------------------0-2-2--------------------------------------

E|----------------------------------------------------------------

B|----------------------------------------------------------------

G|---------X7-7-----------------X7-7------------------------------

D|-5--5-55-X7-7-X9-99--555-5-55-X7-7-X9-99------------------------

A|-5--5-55-X5-5-X9-99--555-5-55-X5-5-X9-99------------------------

E|-3--3-33-X5-5-X7-77--333-3-33-X5-5-X7-77------------------------

"From here on it's instinctual..."

E|----------------------------------------------------------------

B|----------------------------------------------------------------

G|----------X7-7-----------------X7-7-----------------------------

D|-555-5-55-X7-7-X9-99--555-5-55-X7-7-X9-99-----------------------

A|-555-5-55-X5-5-X9-99--555-5-55-X5-5-X9-99-----------------------

E|-333-3-33-X5-5-X7-77--333-3-33-X5-5-X7-77-----------------------

E|----------------------------------------------------------------

B|----------------------------------------------------------------

G|---------------------------------------------------------------- X2

D|--------9--9----9-----------------------------------------------

A|---9-11----11-9-11---------2------------------------------------

E|-0-------------------0-2-4---4-2-4------------------------------

E|----------------------------------------------------------------

B|----------------------------------------------------------------

G|----------------------------------------------------------------

D|--------13--13---13---------------------------------------------

A|---9-11-----11-9-11---------6-----------------------------------

E|-0--------------------0-2-4---4-2-4-----------------------------

E|----------------------------------------------------------------

B|----------------------------------------------------------------

G|----------------------------------------------------------------

D|--------9--9----9-----4--444-2-------9--9----9------------------

A|---9-11----11-9-11---040-444-2--9-11----11-9-11---------2-------

E|-0-------------------020-222-0--------------------0-2-4---4-2-4-

E|----------------------------------------------------------------

B|----------------------------------------------------------------

G|----------------------------------------------------------------

D|--------9--9----9-----------------------------------------------

A|---9-11----11-9-11---------2------------------------------------

E|-0-------------------0-2-4---4-2-4------------------------------

E|----------------------------------------------------------------

B|----------------------------------------------------------------

G|----------------------------------------------------------------

D|--------13--13---13---------------------------------------------

A|---9-11-----11-9-11---------6-----------------------------------

E|-0--------------------0-2-4---4-2-4-----------------------------

E|----------------------------------------------------------------

B|----------------------------------------------------------------

G|----------------------------------------------------------------

D|--------9--9----9------4-4--------------------------------------

A|---9-11----11-9-11---0-4-4--------------------------------------

E|-0-------------------0-2-2--------------------------------------

E|----------------------------------------------------------------

B|----------------------------------------------------------------

G|---------X7-7-----------------X7-7------------------------------

D|-5--5-55-X7-7-X9-99--555-5-55-X7-7-X9-99------------------------

A|-5--5-55-X5-5-X9-99--555-5-55-X5-5-X9-99------------------------

E|-3--3-33-X5-5-X7-77--333-3-33-X5-5-X7-77------------------------

"From here on it's instinctual..."

E|----------------------------------------------------------------

B|----------------------------------------------------------------

G|----------X7-7-----------------X7-7----------------------------- X3

D|-555-5-55-X7-7-X9-99--555-5-55-X7-7-X9-99-----------------------

A|-555-5-55-X5-5-X9-99--555-5-55-X5-5-X9-99-----------------------

E|-333-3-33-X5-5-X7-77--333-3-33-X5-5-X7-77-----------------------

E|----------------------------------------------------------------

B|----------------------------------------------------------------

G|-444444444444/777777777777-444444444444--2---4---5---4-5-4-2----

D|-XXXXXXXXXXXX-XXXXXXXXXXXX-XXXXXXXXXXXX--0---0---0---0-0-0-0----

A|-222222222222/555555555555-222222222222-------------------------

E|----------------------------------------------------------------

(listen for the rhythm)

E|----------------------------------------------------------------

B|----------------------------------------------------------------

G|-444444444444/7777777777/99-444444444444--2---4---5---4-5-4-2--- X3

D|-XXXXXXXXXXXX-XXXXXXXXXX-XX-XXXXXXXXXXXX--0---0---0---0-0-0-0---

A|-222222222222/5555555555/77-222222222222------------------------

E|----------------------------------------------------------------

E|-000000000000-0000000000-00-000000000000------------------------

B|-000000000000-0000000000-00-000000000000------------------------

G|-444444444444/7777777777/99-444444444444--2---4---5---4-5-4-2---

D|-XXXXXXXXXXXX-XXXXXXXXXX-XX-XXXXXXXXXXXX--0---0---0---0-0-0-0---

A|-222222222222/5555555555/77-222222222222------------------------

E|----------------------------------------------------------------

E|-000000000000-000000000000--------------------------------------

B|-000000000000-000000000000--------------------------------------

G|-444444444444-777777777777--------------------------------------

D|-XXXXXXXXXXXX-XXXXXXXXXXXX--------------------------------------

A|-222222222222-555555555555--------------------------------------

E|----------------------------------------------------------------

E|--0--0--0--0--0--0--0--0--0--0--0--0--0--0--0--0----------------

B|--0--0--0--0--0--0--0--0--0--0--0--0--0--0--0--0----------------

G|--12-12-12-12-12-12-12-12-1210-10-10-10-10-10-10---------------

D|--X--X--X--X--X--X--X--X--X--X--X--X--X--X--X--X----------------

A|--10-10-10-10-10-10-10-10-108--8--8--8--8--8--8----------------

E|----------------------------------------------------------------

E|----------------------------------------------------------------

B|----------------------------------------------------------------

G|---------------------------------------------------------------- X2

D|--------9-------9----------------------------------------------

A|---9-11----11-9-11---------2-----------------------------------

E|-0--------------------0-2-4---4-2-4-----------------------------

E|----------------------------------------------------------------

B|----------------------------------------------------------------

G|----------------------------------------------------------------

D|--------13-------13--------------------------------------------

A|---9-11-----11-9-11---------6----------------------------------

E|-0---------------------0-2-4---4-2-4----------------------------

E|----------------------------------------------------------------

B|----------------------------------------------------------------

G|----------------------------------------------------------------

D|--------9-------9-----4--444-2-------9--9----9-----------------

A|---9-11----11-9-11---040-444-2--9-11----11-9-11---------2------

E|-0--------------------020-222-0--------------------0-2-4---4-2-4

E|----------------------------------------------------------------

B|----------------------------------------------------------------

G|----------------------------------------------------------------

D|--------9--9----9-----------------------------------------------

A|---9-11----11-9-11---------2------------------------------------

E|-0-------------------0-2-4---4-2-4------------------------------

E|----------------------------------------------------------------

B|----------------------------------------------------------------

G|----------------------------------------------------------------

D|--------13--13---13---------------------------------------------

A|---9-11-----11-9-11---------6-----------------------------------

E|-0--------------------0-2-4---4-2-4-----------------------------

E|----------------------------------------------------------------

B|----------------------------------------------------------------

G|----------------------------------------------------------------

D|--------13--13---13----4--444-2--------9--9----9-----4---444-2--

A|---9-11-----11-9-11---040-444-2---9-11----11-9-11---040--444-2--

E|-0--------------------020-222-0---------------------020--222-0--

E|----------------------------------------------------------------

B|----------------------------------------------------------------

G|----------------------------------------------------------------

D|------9--9----9-----4--444-2-------9--9----9-----4--444-2-------

A|-9-11----11-9-11---040-444-2--9-11----11-9-11---040-444-2-------

E|-------------------020-222-0--------------------020-222-0-------

E|----------------------------------------------------------------

B|----------------------------------------------------------------

G|----------------------------------------------------------------

D|------13--13---13----4--444-2-------13-------13-------13--------

A|-9-11-----11-9-11---040-444-2--9-11-11--9-11-11--9-11-11--------

E|--------------------020-222-0-----------------------------------

E|----------------------------------------------------------------

B|----------------------------------------------------------------

G|----------------------------------------------------------------

D|------13-------13-------13-------13-------13-------13-------13--

A|-9-11-11--9-11-11--9-11-11--9-11-11--9-11-11--9-11-11--9-11-11--

E|------------------------------------------0-----------------0---

E|----------------------------------------------------------------

B|----------------------------------------------------------------

G|----------------------------------------------------------------

D|------13-------13-------13-------13----4--444-2-----------------

A|-9-11-11--9-11-11--9-11-11--9-11-11---040-444-2-----------------

E|------0--------0--------0--------0----020-222-0-----------------

Get this song at:  amazon.com

Share your thoughts

0 Comments found