Incubus

Yourself Tabs



More from Incubus

Incubus Tabs
Incubus Chords
Incubus Bass
Incubus Lyrics



Incubus
Make yourself
Tabbed by:Matt Jones

here's an accurate version of make yourself



intro/verse:
|------------------------------------------------------------------------------
|------------------------------------------------------------------------------
|------------------------------------------------------------------------------
|--9-x-5-5-x-5-5----------9-x-5-5-x-5-5-x--5-5-5-5-----------------------------
|--9-x-5-5-x-5-5-----7----9-x-5-5-x-5-5-x--7-7-7-7-----------------------------
|--7-x-3-3-x-3-3-0-6---0--7-x-3-3-x-3-3-x--6-6-6-6-----------------------------



chorus:
|------------------------------------------------------------------------------
|------------------------------------------------------------------------------
|--7--7-7-7--7--7-x--3--3-3--3-3--x--------------------------------------------
|--7--7-7-7--7--7-x--3--3-3--3-3--x--5--5--5-----------------------------------
|--5--5-5-5--5--5-x--1--1-1--1-1--x--5--5--5-----------------------------------
|------------------------------------3--3--3-.....etc--------------------------

chorus:
|------------------------------------------------------------------------------
|------------------------------------------------------------------------------
|--7--7-7-7--7--7-x--3--3-3--3-3--x--------------------------------------------
|--7--7-7-7--7--7-x--3--3-3--3-3--x--5--5--5--5-5--x---3-3-x-3-3---------------
|--5--5-5-5--5--5-x--1--1-1--1-1--x--5--5--5--5-5--x---3-3-x-3-3---------------
|------------------------------------3--3--3--3-3--x---1-1-x-1-1---------------



chorus:
|------------------------------------------------------------------------------
|------------------------------------------------------------------------------
|--7--7-7-7--7--7-x--3--3-3--3-3--x-----------------x--5-5--5--5-5-------------
|--7--7-7-7--7--7-x--3--3-3--3-3--x--5--5--5--5-5---x--5-5--5--5-5-------------
|--5--5-5-5--5--5-x--1--1-1--1-1--x--5--5--5--5-5---x--3-3--3--3-3-------------
|------------------------------------3--3--3--3-3------------------------------



Bridge:
|----------------------|-------------------|-----------------------------------
|----------------------|-------------------|-----------------------------------
|-------------0---0----|-------------------|-----------------------------------
|---7---9-----5---5----|--5-5--7-7---------|----8--8--8------------------------
|---9---7-----7---6----|-------------------|----8--8--8------------------------
|----------------------|-------------------|----6--6--6------------------------




heavy part
|------------------------------------------------------------------------------
|------------------------------------------------------------------------------
|------------------------------------------------------------------------------
|--9-x-5-5-x-5-5---8--8--------------------------------------------------------
|--9-x-5-5-x-5-5---8--8--------------------------------------------------------
|--7-x-3-3-x-3-3---6--6--------------------------------------------------------


Get this song at amazon.com      Ebay     Ringtones Ringtones  


Learn to play: Songwriting, Piano, Harmonica, Guitar
More Incubus lyrics available at Muzikum

Related Incubus Tabs

A Crow Left Of The Murder (acoustic) tabs
Out From Under tabs
11am tabs
Smokin Da Herb tabs
Pardon Me2 tabs
Incubus Science tabs
Pardon Me Correct tabs
Pantomime tabs
Stellar tabs
Everything Is Dead tabs
Drive Acoustic tabs
Wish You Were Here Live tabs
Sink Beneath The Line tabs
Aqueous Transmission5 tabs
Clean Bass tabs
Drive7 tabs
Just A Phase tabs
Pardon Me tabs
I Miss You Acoustic tabs
Make Your Self tabs


Guitar Tabs









All tabs are property and copyright of their owners. All tabs provided for educational purposes only. Privacy Policy, DMCA

Online converter - videoconverter.com