Incubus

You Are Stellar Tabs



More from Incubus

Incubus Tabs
Incubus Chords
Incubus Bass
Incubus Lyrics



Band: Incubus
Song: Stellar
Album: Make Yourself
Tuning: Standard EADGBE
Author: Michael Aaron Einziger
Tabbed by: Tom Fleay
E-Mail: blah_bla_blo@hotmail.com


Verse (Clean)

--|-----------------------------------------------------------------------------|--
--|o---------------------------------------------------------------------------o|--
--|---------9/11-11b-6b------------------------9/11-11b-6b----------------------|--
--|-------9-9/11-11b-6b--6-----6-6---6-7-----9-9/11-11b-6b--6-----6-6-----6-----|--
--|o---0-------------------4-4-4---5------0-------------------4-4-4---7-7------o|--
--|-----------------------------------------------------------------------------|--
*with the bends bend about a step than release back to the orginal note quickly


Pre chorus w/ distortion, octaver

--|-----------------------------------------------------------|--
--|-----------------------------------------------------------|--
--|--7--7-7--7-7-7-7--7--7-7-7--4--4---4-4-4-4--4-4--4-4-4-4--|--
--|--7--7-7--7-7-7-7--7--7-7-7--4--4---4-4-4-4--4-4--4-4-4-4--|--
--|--5--5-5--5-5-5-5--5--5-5-5--2--2---2-2-2-2--2-2--2-2-2-2--|--
--|--5--5-5--5-5-5-5--5--5-5-5--------------------------------|--


chorus w/ distortion, octaver

--|----------------------------------------------------------------|--
--|o--------------------------------------------------------------o|--
--|--2--2---2--2-2------------------2--2---2--2-2------------------|--
--|--2--2-x-2--2-2-------6-6-----6--2--2-x-2--2-2-------6-6---6-7--|--
--|o-0--0-x-0--0-0--4--4-----7-7----0--0-x-0--0-0--4--4-----5-----o|--
--|----------------------------------------------------------------|--
on the morning view sessions mike only plays the notes with the octaver and not the chords

Bridge (Clean) Reverb

--|-----------------------------|--
--|o---------------------------o|--
--|----9-9/11-11-----9-96--6---|--
--|----9-9/11-11-----9-96--6---|--
--|o-0------------0------------o|--
--|-----------------------------|--

Repeat Verse

Repeat Chorus

Alt. Chorus played on the last 2 times

--|---------------------------------------|--
--|o-------------------------------------o|--
--|--2--2---2--2-2---------7--7-----7--8--|--
--|--2--2-x-2--2-2---6--6--7--7--6--7--8--|--
--|o-0--0-x-0--0-0---6--6--5--5--6--5--6-o|--
--|------------------4--4--------4--------|--


Interlude (Clean)

--|---------------------------------------------------------------------------0---|--
--|o--------------------------------------------------------------------------0--o|--
--|---------------------------------------------------------------------------4---|--
--|-------0--0----------0--0-----------0--0-------2-2---------2-2---------7---7---|--
--|o----7------7------7------7-------5----5-----2-----2-----2-----2-----5---5----o|--
--|---5----------5--5----------53-3------3---0---------0-0---------0-3-----------|--


Post Interlude w/ distortion

--|------------------------|--
--|------------------------|--
--|------------------------|--
--|------------------------|--
--|--5-5--5-5-5-5-5-5-5-5--|--
--|--3-3--3-3-3-3-3-3-3-3--|--
Pm-------sought of slowly release the palm muting


Repeat Chorus

Alt. Chorus played on the last 2 times

--|---------------------------------------|--
--|o-------------------------------------o|--
--|--2--2---2--2-2---------7--7-----7--8--|--
--|--2--2-x-2--2-2---6--6--7--7--6--7--8--|--
--|o-0--0-x-0--0-0---6--6--5--5--6--5--6-o|--
--|------------------4--4--------4--------|--


Outro w/ distortion , octaver

--|----------------------------------|--
--|----------------------------------|--
--|----------------------------------|--
--|----6-6---6-7------6-6---6-7---9--|--
--|--4-----5------4-4-----5-------7--|--
--|-------------------------------5--|--

Thankyou.


Get this song at amazon.com      Ebay     Ringtones Ringtones  


Learn to play: Songwriting, Piano, Harmonica, Guitar
More Incubus lyrics available at Muzikum

Related Incubus Tabs

Oil And Water tabs
Calgone Btab tabs
Anti-gravity Sax Solo Tabbed For Guitar tabs
I Miss You Acoustic tabs
Glass Bass tabs
Drive3 Crd tabs
Aqueous Transmission3 tabs
Yourself tabs
Nice To Know You tabs
11am tabs
ARE YOU IN? tabs
Again And Again tabs
Drive4 tabs
Southern Girl Solo tabs
Golden tabs
11 Am tabs
Isadore tabs
Morning View tabs
New Skin Acoustic tabs
Calogne tabs


Guitar Tabs









All tabs are property and copyright of their owners. All tabs provided for educational purposes only. Privacy Policy, DMCA