Incubus

Wish You Were Here Bass Tabs



More from Incubus

Incubus Tabs
Incubus Chords
Incubus Bass
Incubus Lyrics

Date: Thu, 17 Jul 2003 22:48:58 EDT
From: Impulse0451@cs.com
Subject: i/incubus/wish_you_were_here.btab

Tabber:Brad Garner
Band:Incubus
Song:Wish You Were Here
Email:Impulse0451@cs.com

Tuning:(low to high)EADG

Intro/Chorus:

G----------------------------------------------------------------
D----------------------------------------------------------------
A----------------------------------------------------------------
E-----5-5-5---0-0-0-0----0-0---2-2-2---5-5--0-0-0-0

Verse
                                                           Fill 1
G---------------------------------------------------------------------6---------
D------------------------------------------------------------------6-------6----
A-------------------------5-------------------------------5--5---------------5-
E---5-----0-------2-----------5-------0-------2-------------------------------

Fill 2 that goes from the verse to the chorus
G-------------------------------------
D-------------------------------------
A---0-0---0--0---------------------
E-------------------------------------

Verse 2

G--------------------------------------------------
D--------------------------------------------------
A---------------------------------5-5-5--5-5-5-
E--5-5-5--0---0-0--2-2-2---------------------
                                                      FIll 2
G-----------------------------------------------------------6----------
D--------------------------------------------------------6-----6------
A---------------------------------5-5-5--5-5-5---5-------------5-
E--5-5-5--0---0-0--2-2-2-----------------------------------------

Interlude:

G---------------------------------------------------
D----------------------------------------------------
A----------------------------------------------------
E--5-5-5-5-5---5h7p5--3-3-3-3-3--3h5p3   PART 1

G--------------------------------------------------------
D--------------------------------------------------------
A--------------------------------------------------------
E--5-5-5-5-5---5h7p5--3-3-3--12-12-12--12   PART 2


ORDER:
Intro X6
Verse- X2 w/fill 1
verse- X1 w/fill 2
Chorus- X4
Verse- X1 w/fill 1
Verse2- X2 w/fill 2
Chorus-  X4
Interlude 1-  X3
Interlude 2-  X1
Chorus-  X6

EMAIL FOR ANY SUGGESTIONS OR QUESTIONS!
Get this song at amazon.com      Ebay     Ringtones Ringtones  


Learn to play: Songwriting, Piano, Harmonica, Guitar
Also available at Muzikum: Incubus - Wish you were here lyrics

Related Incubus Bass Tabs

11 Am Tab bass
Zee Deveel bass
Hilikus bass
Make Yourself (4 String) bass
Anna Molly bass
You Will Be A Hot Dancer bass
Nice To Know You (4 String) bass
Glass (complete Five String) bass
Anti-gravity bass
Megalomaniac Perfect With All Fills bass
A Certain Shade Of Green (acoustic) bass
Sink Beneath The Line bass
Under My Umbrella bass
Mexico bass
The Warmth bass
Trouble In 421 bass
Here In My Room bass
Calgone (secret Songs / Secret Part) bass
When It Comes bass
Nebula bass


Guitar Tabs









All tabs are property and copyright of their owners. All tabs provided for educational purposes only. Privacy Policy, DMCA