Incubus

Wish You Were Here[100% Correct] Bass Tabs



More from Incubus

Incubus Tabs
Incubus Chords
Incubus Bass
Incubus Lyrics




This sounds very accurate to the actual song...i believe this is what Dirk
Lance plays:


Intro/chorus:

G]-----------------------------
D]-----------------------------
A]--0-0----------2-2-2--5------
E]------0~0-000-----------0000-


Main Riff:

G]----------------------------4/6h4
D]-------------------------4-------
A]---2-0-----5~--2-0----5~---------
E]-------2------------2------------
* *

Bridge:

G]-------------------------------
D]-------------------------------
A]----333x-555-------------------
E]---------------[222--555--333--222-]
repeat this ^ several times

end with:

G]--------------------------
D]--------------------------
A]-------------------------
E]----222-3/15-15-15-15-15

and that is it



Get this song at amazon.com      Ebay     Ringtones Ringtones  


Learn to play: Songwriting, Piano, Harmonica, Guitar
More Incubus lyrics available at Muzikum

Related Incubus Bass Tabs

Stellar bass
Redefine (5 String) bass
Make Yourself (4 String) bass
Megalomanic bass
Megalomaniac bass
Trouble In 421 bass
Glass (complete Five String) bass
Steller Make Yourself bass
Calgone bass
11 Am Tab bass
Circles bass
Southern Girl bass
11 A. M. bass
Privilege bass
Morning View bass
Priceless (complete) bass
Speak Free bass
Azwethinkweiz bass
Clean bass
Make Yourself bass


Guitar Tabs









All tabs are property and copyright of their owners. All tabs provided for educational purposes only. Privacy Policy, DMCA