Incubus

Warning (standard Tuning) Bass Tabs



More from Incubus

Incubus Tabs
Incubus Chords
Incubus Bass
Incubus Lyrics



This is only the notes.....you can play with it and make it yours!

Intro/Verse
G:---------------------------------
D:---------------------------------
A:---2---1-2----1-2---1------------
E:----------------------3--2-------


Chorus:"She woke in the morning..."
G:-----------------------------------------------------------------------
D:-----------------------------------------------------------------------
A:-2-222-22-2-1---2-222-22-2-1--2-222-22-2-1-11--------------------------
E:----------------------------------------------3-333-33-22-22-----------

I don't have my bass with me right now, but I figured this out last night. I'm super open
to suggestions. Enjoy!

Brought to you by the BassMasta - http://www.tabs-database.com



Get this song at amazon.com      Ebay     Ringtones Ringtones  


Learn to play: Songwriting, Piano, Harmonica, Guitar
More Incubus lyrics available at Muzikum

Related Incubus Bass Tabs

Clean bass
Crowded Elevator bass
Warning (standard Tuning) bass
Hilikus bass
Aqueous Transmission (Version 3) bass
New Skin bass
Magic Medicine bass
Out From Under bass
Zee Deveel bass
Steller Make Yourself bass
Pardon Me (4 String) bass
When Incubus Attacks bass
Science bass
Are You In bass
Glass bass
Nice To Know You bass
Incubus-redefine bass
Morning View bass
Anna Molly bass
Mexico bass


Guitar Tabs









All tabs are property and copyright of their owners. All tabs provided for educational purposes only. Privacy Policy, DMCA