Incubus

Warning Bass Tabs



More from Incubus

Incubus Tabs
Incubus Chords
Incubus Bass
Incubus Lyrics

From: "Torin Gallagher" 
Subject: i/incubus/warning.btab
Date: Thu, 16 Jun 2095 17:47:24 +1000

Band: Incubus
Album: "Morning View"
Song: "Warning" (No. 8)
Tabbed by: Tossa G

This is my first tabbing effort so if it doesn't make sense then 
that's why. But I think it's OK.
 
The bass doesn't come in til after the first verse 
where it goes "see thru sickness, yeah." 
Then it goes to the Pre-chorus:
G |----|----|----|----|
D |----|----|----|----|
A |----|----|----|----|
E |2--0|2--0|2--0|2--0|

Then the chorus goes:
G |----|----|----|----|----|----|----|--0-|
D |----|----|----|----|----|----|----|2---|
A |2--0|2--0|2--0|----|2--0|2--0|2--0|----|
E |----|----|----|3-2-|----|----|----|----|

The next verse goes the same as the chorus pretty much
except for the bit on the end:
G |----|----|----|----|----|----|----|----|
D |----|----|----|----|----|----|----|----|
A |2--0|2--0|2--0|----|2--0|2--0|2--0|----|
E |----|----|----|3-2-|----|----|----|0-3-|

Then back to the Pre-chorus:
G |----|----|----|----|
D |----|----|----|----|
A |----|----|----|----|
E |2--0|2--0|2--0|2--0|

Chorus:
G |----|----|----|----|----|----|----|--0-|
D |----|----|----|----|----|----|----|2---|
A |2--0|2--0|2--0|----|2--0|2--0|2--0|----|
E |----|----|----|3-2-|----|----|----|----|

Bridge:
G |----|----|----|----|----|----|----|----|
D |----|----|----|----|----|----|----|----|
A |----|----|----|----|----|----|----|----|
E |2--0|2--0|2--0|2--0|2--0|2--0|2--0|2--0|

G |----|----|----|----|----|----|----|----|
D |----|----|----|----|----|----|----|----|
A |2--0|2--0|2--0|----|2--0|2--0|2--0|----|
E |----|----|----|3-2-|----|----|----|0-3-|

Chorus:
G |----|----|----|----|----|----|----|--0-|
D |----|----|----|----|----|----|----|2---|
A |2--0|2--0|2--0|----|2--0|2--0|2--0|----|
E |----|----|----|3-2-|----|----|----|----|

Outro:
G |----|----|----|----|----|----|----|--0-|
D |----|----|----|----|----|----|----|2---|  PLAY
A |2--0|2--0|2--0|----|2--0|2--0|2--0|----| /  2X
E |----|----|----|3-2-|----|----|----|----|/

And that's it. I'm pretty sure it's right but even if it's not it 
should help a bit.
Cheers.
Get this song at amazon.com      Ebay     Ringtones Ringtones  


Learn to play: Songwriting, Piano, Harmonica, Guitar
Also available at Muzikum: Incubus - Warning lyrics

Related Incubus Bass Tabs

Just A Phase bass
Aqueous Transmission bass
Pantomime bass
Here In My Room bass
When It Comes bass
Azwethinkweiz bass
Privilege bass
Blood On The Ground bass
Warning (5 String) bass
Sick sad little world bass
Aqueous Transmission (Version 3) bass
Anti-gravity bass
You Will Be A Hot Dancer bass
Nebula bass
A Crow Left Of The Murder bass
Pardon Me (4 String) bass
Megelomaniac bass
Dig bass
I Wish You Were Here bass
Glass bass


Guitar Tabs









All tabs are property and copyright of their owners. All tabs provided for educational purposes only. Privacy Policy, DMCA