Incubus

The Warmth (acoustic) Tabs



More from Incubus

Incubus Tabs
Incubus Chords
Incubus Bass
Incubus Lyrics



The Warmth (Acoustic Version)
Incubus

Tabbed By Thomas Fleay

Standard Tuning


|---------------------------------------------------|
|-----17----17----17----17----13----13----13----13--|
|--16----16----16----16----12----12----12----12-----|
|---------------------------------------------------|
|---------------------------------------------------|
|---------------------------------------------------|


|--------------------------------------------------|
|-----8-----8-----8-----8-----5-----5-----5-----5--|
|--7-----7-----7-----7-----4-----4-----4-----4-----|
|--------------------------------------------------|
|--------------------------------------------------|
|--------------------------------------------------|


|-------------------------------------------------|
|----------------------------------------------0--|
|--129-9--9-9-9--9-9-9------------------------4--|
|------------------------7--7-7-7--7-7-7--4-4--4--|
|--107-7--7-7-7--7-7-7--5--5-5-5--5-5-5--2-2--2--|
|----------0-0-0--8-8-8--3--3-3-3--3-3-3--0-0--0--|
I downloaded an unplugged ‘The Warmth’ off the net and it didn’t
have the slide down at the beginning of this riff but he does it on the DVD.


|-----------------------------------|
|-----------------------------------|
|--9p7-9p7-9p7-9-9p7-9-9p7-9p7-9p7--|
|--9p7-9p7-9p7-9-9p7-9-9p7-9p7-9p7--|
|-----------------------------------|
|-----------------------------------|


|------------------------------------|
|------------------------------------|
|--9p7-9p7-9p7-9-9p7-9-9p7-9h109h10--|
|--9p7-9p7-9p7-9-9p7-9-9p7-9h109h10--|
|------------------------------------|
|------------------------------------|


Also on the version I got off the net he plays this as the outro but not on the dvd.
|-------------------------------------------|
|-------------------------------------------|
|---------------------------14----14----14--|
|--13b-11----11----11-----------------------|
|---------14----14----12-11----11----11-----|
|-------------------------------------------|


Get this song at amazon.com      Ebay     Ringtones Ringtones  


Learn to play: Songwriting, Piano, Harmonica, Guitar
Also available at Muzikum: Incubus - The Warmth Acoustic lyrics

Related Incubus Tabs

11 Am (Version 2) tabs
I Wish You Were Here tabs
Drive3 Crd tabs
Redifine tabs
Agoraphobia tabs
Are You In Solo tabs
Zee Deveel tabs
Certain Shade Of Green Acoustic Live tabs
Blood On The Ground tabs
Oil And Water tabs
Are You In Bass tabs
Favorite Things tabs
New Skin Correct tabs
Priceless Bass tabs
Clean2 tabs
Out From Under tabs
Acqueous Transmission tabs
Stellar Acoustic tabs
Talk Show On Mute tabs
Shaft tabs


Guitar Tabs









All tabs are property and copyright of their owners. All tabs provided for educational purposes only. Privacy Policy, DMCA