Incubus

The Warmth (4 String) Bass Tabs



More from Incubus

Incubus Tabs
Incubus Chords
Incubus Bass
Incubus Lyrics



Incubus -The Warmth

Standard Tuning

Intro / Verse
G/-----------------------------------------------------------------
D/-4h5p4--2---2--2-------------------------------------------------
A/------------------3--3--3----3--0--------------------------------
E/-----------------------------------3--3----3---3-----0--0--0-----

Play this part at the end of the intro right before it goes into
the first verse
G/-----------------------------------------
D/-----------------------------------------
A/-----------------------------------------
E/--0-----0--0-------0------0--0--0--------

Chorus:
G/-----------------------------------------------------------------------------------
D/-----------------------------------------------------------------------------------
A/--0h7---7--7----7---7------3----3-----3---3----------------------------------------
E/-----------------------------------------------3----3---3---3--3--0---0--0--0--0---

G/------------------------------------------------------------------------
D/------------------------------------------------------------------------
A/--2--2-----2--2-----2----3---3-------3---3----3-----5----5--5----5--5---
E/------------------------------------------------------------------------

Work Out the order Yourself

Taken from The BassMasta -- http://www.tabs-database.com



Get this song at amazon.com      Ebay     Ringtones Ringtones  


Learn to play: Songwriting, Piano, Harmonica, Guitar
More Incubus lyrics available at Muzikum

Related Incubus Bass Tabs

Stellar bass
Anna Molly bass
Redefine bass
When It Comes bass
Talk Shows On Mute bass
Out From Under bass
Da Warmth bass
Glass-6 String bass
Wish You Were Here bass
Made For Tv Movie bass
Science bass
I Miss You bass
Just A Phase bass
Megolomaniac bass
New Skin 4 Strng bass
Answer bass
Nice To Know You bass
Zee Deveel bass
Admiration bass
Consequence bass


Guitar Tabs









All tabs are property and copyright of their owners. All tabs provided for educational purposes only. Privacy Policy, DMCA