Incubus

Talk Show On Mute Solo Tabs



More from Incubus

Incubus Tabs
Incubus Chords
Incubus Bass
Incubus Lyrics



Here you go, I did this all by ear, and it's really close.
Possible errors are:
1 - Right before he starts the cool sounding slides (it gets hard to hear
for about an eigth note's length; I'm not sure what's in there)
2 - The very last few notes may be off slightly, just play around w/ it

Q=60 or so
4/4
Gtr I
a Q. +S T T S S S a S a S S S S a S S S S S S a E +E S S E S S
|------------------------------------|---------------------------------|
|------------------------------------|---------------------------------|
|------------------------------------|---------5---------------------0-|
|----------------5---5-5h7-5h7-5---5-|-5h7-5-7---7-5-5h7-(7)---5-5---7-|
|-5s7----(7)-5h7---7-------------7---|-----------------------7-----7---|
|------------------------------------|---------------------------------|


|--3--| |--3---| |---3---| |--3---| |--3--|
a E E E a E E E a E E e S S S S S +S
|------------------------------------------------------------|
|------------------------------------------------------------|
|-0-(0)-0--0--0-(0)--0--0--0-(0)-(0)--0--0-(0)--0-(0)-0-(0)--|
|-7s10--7-10-10s12--10-12-12s14s=12--12-12s10--10s=7--7-(7)--|
|------------------------------------------------------------|
|------------------------------------------------------------|


|-3--|
a E E E Q +S S S S S S S S +S S S S S S S S S S S S S S S S
|----------------------------------|-------------------------------------------|
|-----------------------------10---|--------10---------------------------------|
|-0-(0)-0-0-5--(5)-5-------------9-|-(9)------------------------------9---9-7--|
|-7s=5--5-7----------7-----10------|-----10----10-10-10-10-10-9-9-7-7---7------|
|----------------------7-8---------|-------------------------------------------|
|----------------------------------|-------------------------------------------|


+S S S E S S S S S S S T T S E S S S S S S S S S S S E S E
|---------------------------------|-----------------------------|
|---------------------------------|-----------------------------|
|-(7)---7-7-9---9s7---7-7-7p5---5-|---5---5-7---5-5---5---5---7-|
|-----7-------7-----7---------7---|-7---7-----7-----7---7---9---|
|---------------------------------|-----------------------------|
|---------------------------------|-----------------------------|


S S S E S S S S S e. Q
|-----------------------------|
|-----------------------------|
|---7---7-7-7-7-7-7-7---x----|
|-9---9-----------------------|
|-----------------------------|
|-----------------------------|

Enjoy.

-Cory


Duration Legend
---------------
W - whole; H - half; Q - quarter; E - 8th; S - 16th; T - 32nd; X - 64th; a - acciaccatura
+ - note tied to previous; . - note dotted; .. - note double dotted
Uncapitalized letters represent notes that are staccato (1/2 duration)
Irregular groupings are notated above the duration line
Duration letters will always appear directly above the note/fret number it represents the
duration for. Duration letters with no fret number below them represent rests. Multi-
bar rests are notated in the form Wxn, where n is the number of bars to rest for. Low
melody durations appear below the staff

Tablature Legend
----------------
h - hammer-on
p - pull-off
b - bend
pb - pre-bend
r - bend release (if no number after the r, then release immediately)
/ - slide into or out of (from/to "nowhere")
s - legato slide
S - shift slide
- natural harmonic
[n] - artificial harmonic
n(n) - tapped harmonic
~ - vibrato
tr - trill
T - tap
TP - trem. picking
PM - palm muting
n/ - tremolo bar dip; n = amount to dip
n - tremolo bar down
n/ - tremolo bar up
/n - tremolo bar inverted dip
= - hold bend; also acts as connecting device for hammers/pulls
- volume swell (louder/softer)
x - on rhythm slash represents muted slash
o - on rhythm slash represents single note slash

Misc Legend
-----------
| - bar
|| - double bar
||o - repeat start
o|| - repeat end
*| - double bar (ending)
: - bar (freetime)
$ - Segno
& - Coda
Tempo markers - = BPM(8/16=s8/s16), where s8 = swing 8ths, s16 = swing 16ths


***************************************************************************************
* Generated using Power Tab Editor by Brad Larsen - http://powertab.guitarnetwork.org *
***************************************************************************************


Get this song at amazon.com      Ebay     Ringtones Ringtones  


Learn to play: Songwriting, Piano, Harmonica, Guitar
More Incubus lyrics available at Muzikum

Related Incubus Tabs

Under My Umbrella tabs
11 Am Intro tabs
Talk Show On Mute tabs
Yourself tabs
Aqueous Tranmission tabs
Idiot Box tabs
Blood On The Ground tabs
A Certain Shade Of Green tabs
Hilikus tabs
ARE YOU IN? tabs
Drive4 tabs
Clean Bass tabs
Morning View (whole Album) tabs
Hilikus Solo tabs
11 A. M. tabs
Incubus Science tabs
Summer Romance Intro tabs
Deep Inside tabs
The Warmth (acoustic) tabs
Make Yourself Acoustic tabs


Guitar Tabs









All tabs are property and copyright of their owners. All tabs provided for educational purposes only. Privacy Policy, DMCA