Incubus

Summer Romance (anti-gravity Love Song) Bass Tabs



More from Incubus

Incubus Tabs
Incubus Chords
Incubus Bass
Incubus Lyrics



Artist: Incubus
Song: Summer Romance (Anti-Gravity Love Song)
Album: S.C.I.E.N.C.E.

----------------------------------PLEASE NOTE---------------------------------
This file is the author's own work and represents their interpretation of the
song. You may only use this file for private study, scholarship, or research.
------------------------------------------------------------------------------

Intro
G:--------------------------------
D:--------------------------------
A:2-------2-------2-------2-------
E:--------------------------------

Main Riff
G:--------------
D:---4----------
A:2-----0--0--1-
E:--------------

Riff #2 (after Main Riff plays 3 times, optional)
G:-----------------
D:---4-------220022
A:2-----0---0------
E:-----------------

Riff #3
G:----------------
D:2----0----------
A:---------1----2-
E:----------------

Riff #4
G:----------------------------
D:----------------------------
A:------------5-4-2-2-2--2-2-2
E:3--3--2-0-2-----------------

Arrangement:
Intro
Main Riff (x24)
Riff #3 (x2)
Main Riff (x8)
Riff #4 (x1)
Main Riff (x16)
Riff #3 (x2)
Main Riff (x8)
Riff #4 (x1)
Main Riff (x8)
Riff #3 (x2)
Main Riff (x8)
Riff #4 (x1)

------------------------------------------------------------------------------
--------------These are merely the basic construct for the song.--------------
----------------------Learn them, then improvise further.---------------------
-------------------Have fun with it, make the song your own!------------------
------------------------------------------------------------------------------



Get this song at amazon.com      Ebay     Ringtones Ringtones  


Learn to play: Songwriting, Piano, Harmonica, Guitar
Also available at Muzikum: Incubus - Summer Romance (anti-gravity Love Song) lyrics

Related Incubus Bass Tabs

The Answer bass
Speak Free Intro bass
Zee Deveel bass
Glass bass
Pardon Me (4 String) bass
Talk Show On Mute bass
Redefine bass
Under My Umbrella bass
Speak Free bass
You Will Be A Hot Dancer bass
Stellar( 4 And 5 String) bass
Steller Make Yourself bass
11am bass
Southern Girl bass
Privilege bass
The Warmth bass
A Crow Left Of The Murder bass
Certain Shade Of Green bass
Medium bass
Morning View bass


Guitar Tabs









All tabs are property and copyright of their owners. All tabs provided for educational purposes only. Privacy Policy, DMCA