Incubus

Summer Romance Bass Tabs



More from Incubus

Incubus Tabs
Incubus Chords
Incubus Bass
Incubus Lyrics

-----------------------------------------------------------------------------

Summer Romance (Anti-Gravity Love Song) - Incubus

-------------------------------------------------------------------------------



Tabbed By : dvanwyk

e-mail: webmaster at tabs-database.com.com



Tuning:Standard

(0.09) x8 (0.18) x1 (3.37)

G|-------------------2/4-44-6/4-9/7-7---|------------------|--------------|

D|--------------------------------------|------------------|--------------|

A|2~----2~------------------------------|---9--------------|--------------|

E|------------0~------------------------|7-----5-5-56------|77------------|



Verse x16 "I'm home alone tonight"

G|--------------------------------|

D|--------------------------------|

A|---9----------------------------|

E|7-----5-5-56--------------------|



Pre-Chorus "When we get there, we're gonna go far away"

G|-----------------------------------------------------------------------------------------|

D|----7h9-99p7------44-7-4----------------------9x-9x-9p7-----77-7-5-----------------------|

A|77------------55--------------------10-10/77-------------55--------------------12-12-----|

E|--------------------------77777-999----------------------------------77777-999-----------|



Chorus x8 "Anti-Gravity"

G|--------------------------------|

D|--------------------------------|

A|---9----------------------------|

E|7-----5-5-56--------------------|



Post-Chorus

G|---------------------------------------|

D|---------------------------------------|

A|----------------5-4-22-2-22-2----------|

E|3-3-3-3-3-2-0-2------------------------|



Verse x16 "For years, I kept....."

G|--------------------------------|

D|--------------------------------|

A|---9----------------------------|

E|7-----5-5-56--------------------|



Pre-Chorus "When we get there, we're gonna go far away"

G|-----------------------------------------------------------------------------------------|

D|----7h9-99p7------44-7-4----------------------9x-9x-9p7-----77-7-5-----------------------|

A|77------------55--------------------10-10/77-------------55--------------------12-12-----|

E|--------------------------77777-999----------------------------------77777-999-----------|



Chorus x8 "Anti-Gravity"

G|--------------------------------|

D|--------------------------------|

A|---9----------------------------|

E|7-----5-5-56--------------------|



Post-Chorus

G|--------------------------------------------------------------------|

D|--------------------------------------------------------------------|

A|----------------5-4-22-2-22-2--22-2-22-2--22-2-22-2--22-2-22-2------|

E|3-3-3-3-3-2-0-2-----------------------------------------------------|



Bridge

G|--------------------------------|

D|--------------------------------|

A|---9----------------------------|

E|7-----5-5-56--------------------|



G|-----------------------------------------------------------------------------------------|

D|----7h9-99p7------44-7-4----------------------9x-9x-9p7-----77-7-5-----------------------|

A|77------------55--------------------10-10/77-------------55--------------------12-12-----|

E|--------------------------77777-999----------------------------------77777-999-----------|



G|------------------|

D|------------------|

A|------------------|

E|77-7-77-7--9/-----|



Chorus x8 "Anti-Gravity"

G|--------------------------------|

D|--------------------------------|

A|---9----------------------------|

E|7-----5-5-56--------------------|



Outro

G|-------------------------------|

D|-------------------------------|

A|----------3/5--4---2~----------|

E|2--0--2------------------------|

Added by tabs-database.com and our distinguished partners
Get this song at amazon.com      Ebay     Ringtones Ringtones  


Learn to play: Songwriting, Piano, Harmonica, Guitar
More Incubus lyrics available at Muzikum

Related Incubus Tabs

Under My Umbrella tabs
Robyn Rules tabs
Here In My Room tabs
Wish You Were Here Live tabs
Anti Gravity Song tabs
Circles tabs
Monuments And Melodies tabs
Medium tabs
Drive3 Crd tabs
Drive Corected tabs
Drive7 tabs
Echo tabs
Aqueous Transmission5 tabs
Consequence tabs
Idiot Box tabs
Hilikus tabs
Anti-Gravity Love Song tabs
Are You In Bass tabs
Southern Girl Solo tabs
The Warmth tabs


Guitar Tabs









All tabs are property and copyright of their owners. All tabs provided for educational purposes only. Privacy Policy, DMCA