Incubus

Stellar Tabs



More from Incubus

Incubus Tabs
Incubus Chords
Incubus Bass
Incubus Lyrics

Incubus

Stellar





Just play along to the song to get the strumming patterns down.

Besides that, everything is pretty much accurate, if not, close enough.

It\'s also really not the live version, I just did that so MX Tabs would submit it.





~ - let ring

br - bend then release

/ - slide up

< - slide down

P.M. - palm mute

. - chords to palm mute

x - ghost note



Standard Tuning (EADGBe)





Intro: Clean x4



0:06

E|----------------------------------------------------------------------|

B|----------------------------------------------------------------------|

G|-------9/11-11br<6br---------------------9/11-11br<6br----------------|

D|-----9-9/11-11br<6br-6----66---6-7-----9-9/11-11br<6br-6----66---6-7--|

A|--0~-------------------44----7------0~-------------------44----5------|

E|----------------------------------------------------------------------|



Pre-chorus: Distortion x1



0:32

E|--------------------------|

B|--------------------------|

G|-77777777777-44444444444--|

D|-77777777777-44444444444--|

A|-55555555555-22222222222--|

E|-55555555555-22222222222--|

P.M. ....



Chorus: Distortion x2



0:40

E|-------------------------------------------------------|

B|-------------------------------------------------------|

G|-------------------------------------------------------|

D|-x-77-x-77-x-66----66---6-7-x-77-x-77-x-66----66---6-7-|

A|-x-77-x-77-x----44----5-----x-77-x-77-x----44----7-----|

E|-x-55-x-55-x----------------x-55-x-55-x----------------|



Interlude: Clean, Reverb, light Chorus effect x2



0:55

E|----------------------------|

B|----------------------------|

G|---9/11-11~-------9<6-6~----|

D|---9/11-11~-------9<6-6~----|

A|-0~-------------0~----------|

E|----------------------------|



Verse: Clean x4



1:10

E|----------------------------------------------------------------------|

B|----------------------------------------------------------------------|

G|------9/11-11br<6br-----------------------9/11-11br<6br---------------|

D|----9-9/11-11br<6br-6----66---6-7-------9-9/11-11br<6br-6----66---6-7-|

A|--0~------------------44----5---------0~------------------44----7-----|

E|----------------------------------------------------------------------|



Pre-chorus: Distortion x1



1:40

E|--------------------------|

B|--------------------------|

G|-77777777777-44444444444--|

D|-77777777777-44444444444--|

A|-55555555555-22222222222--|

E|-55555555555-22222222222--|

P.M. ....



Chorus: Distortion x4



1:48

E|--------------------------------------------------------

B|--------------------------------------------------------

G|--------------------------------------------------------

D|-x-77-x-77-x-66----66---6-7-x-77-x-77-x-66----66---6-7--

A|-x-77-x-77-x----44----5-----x-77-x-77-x----44----7------

E|-x-55-x-55-x----------------x-55-x-55-x-----------------



...on 3rd and 4th time



2:03

E|-------------------------------------------------|

B|-------------------------------------------------|

G|-------------66----------------------66----------|

D|-x-77-x-77-x-66-66---6-7-x-77-x-77-x-66-66---6-7-|

A|-x-77-x-77-x-44-66---6-7-x-77-x-77-x-44-66---6-7-|

E|-x-55-x-55-x-44-44-0-4-5-x-55-x-55-x-44-44-0-4-5-|



Bridge: Clean, slow Phaser effect x2



2:10

E|---------------------------------------------------------------------------

B|---------------------------------------------------------------------------

G|-------------------------------0~------------------------------------0~----

D|-----0-0---------0-0---------0-0~--------2-2---------2-2---------0---0~----

A|---7-----7-----7-----7-----5---5~------2-----2-----2-----2-----5---5-------

E|-5---------5-5---------5<3-----3~----0---------0-0---------0-3-------------



...ending of 2nd time



2:38

E|-------------|

B|-------------|

G|-------------|

D|----55555555-|

A|----55555555-|

E|----33333333-|

P.M. ........



Chorus: Distortion x4



2:40

E|-------------------------------------------------------

B|-------------------------------------------------------

G|-------------------------------------------------------

D|-x-77-x-77-x-66----66---6-7-x-77-x-77-x-66----66---6-7--

A|-x-77-x-77-x----44----5-----x-77-x-77-x----44----7------

E|-x-55-x-55-x----------------x-55-x-55-x-----------------



ending part on 4th time



3:03 3:08 3:12

E|--------------------------------------------------------------------|

B|--------------------------------------------------------------------|

G|-------------66----------------------66----------66-----------------|

D|-x-77-x-77-x-66-66---6-7-x-77-x-77-x-66-66---6-7-66-66---6-7--9~----|

A|-x-77-x-77-x-44-66---6-7-x-77-x-77-x-44-66---6-7-44-66---6-7--7~----|

E|-x-55-x-55-x-44-44-0-4-5-x-55-x-55-x-44-44-0-4-5-44-44-0-4-5--5~----|

Get this song at amazon.com      Ebay     Ringtones Ringtones  


Learn to play: Songwriting, Piano, Harmonica, Guitar
Also available at Muzikum: Incubus - Stellar lyrics

Related Incubus Tabs

Glass Bass tabs
Make Yourself Acoustic tabs
Morning View (whole Album) tabs
Pardon Me Correct tabs
Nebula tabs
Pistola tabs
Nice To Know You Bass tabs
Megalomaniac (2) tabs
Turning Japanese tabs
Hilikus tabs
Drive Solo tabs
Under My Umbrella Bass tabs
Privilege tabs
Still Not A Player tabs
Are You In tabs
Medium tabs
Pendulous Threads tabs
Look Alive tabs
Sink Beneath The Line tabs
Calogne tabs


Guitar Tabs









All tabs are property and copyright of their owners. All tabs provided for educational purposes only. Privacy Policy, DMCA