Incubus

Stellar Bass Tabs



More from Incubus

Incubus Tabs
Incubus Chords
Incubus Bass
Incubus Lyrics



Stellar
By Incubus (Dirk Lance)
For 4 and 5 strings
Grant Vogl tabbed this for a 5 string (due respect to him but I canít
understand it at all), but I donít have a 5 string, so this is it for
a 4 string. Itís my first tab, put together from a lot Iíve seen around
-it probably sucks but let me know good or bad, or any problems you have,
at blurryvision7@yahoo.com. Bottom line, INCUBUS ROCKS

Rest until about 0:18 then
G-----------------]
D-----------------]
A-----------------]X4
E------55---99----]
Pre-chorus
G-------------------]
D-------------------]
A-------------------]
E------10Ö7777777--]
Chorus
G-------------------------------------]
D-----------66--6-----------66-67-----]
A-0-000-0044--77-0----000-44--4-------]X2
E-----------------0-00----------------]
Solo
G------------------------------------------------------------]
D-------7-7-7-----------/7---9/109--------------------------]
A-00---7-7-7-777



Get this song at amazon.com      Ebay     Ringtones Ringtones  


Learn to play: Songwriting, Piano, Harmonica, Guitar
Also available at Muzikum: Incubus - Stellar lyrics

Related Incubus Bass Tabs

Crowded Elevator bass
Consequence bass
Redefine bass
When Incubus Attacks bass
The Answer bass
Talk Shows On Mute bass
A Certain Shade Of Green (acoustic) bass
Psychopsilocybin bass
The Warmth bass
Made For A Tv Movie bass
Nice To Know You bass
Nowhere Fast bass
The Warmth (4 String) bass
Wish You Were Here bass
Steller .. Great bass
Glass (complete Five String) bass
Zee Deveel bass
Pantomime bass
Under My Umbrella(complete Five String) bass
Magic Medicine bass


Guitar Tabs









All tabs are property and copyright of their owners. All tabs provided for educational purposes only. Privacy Policy, DMCA