Incubus

Stellar( 4 And 5 String) Bass Tabs



More from Incubus

Incubus Tabs
Incubus Chords
Incubus Bass
Incubus Lyrics




Stellar
By Incubus (
For 4 and 5 strings


Rest until about 0:18 then
G-----------------]
D-----------------]
A-----------------]X4
E------55---99----]
Pre-chorus
G-------------------]
D-------------------]
A-------------------]
E------10…7777777--]
Chorus
G-------------------------------------]
D-----------66--6-----------66-67-----]
A-0-000-0044--77-0----000-44--4-------]X2
E-----------------0-00----------------]
Solo
G------------------------------------------------------------]
D-------7-7-7-----------/7---9/109--------------------------]
A-00---7-7-7-777-----------------9/109-------------------]
E------------------------------------------------------------]

G------------------------------------------------------------]
D-------7-7-7-----------/7----9/10/9------------------------]
A-00---7-7-7-777-------------------------------------------]
E------------------------------------------------------------]
Verse 2
G------------------------------------]
D------------------------------------]
A-------------------11-1112----------](That’s fret 11 to 12 fast)
E--55---99---55---99--9--------------]X4

Repeat Pre-chorus
Repeat Chorus except on last time before the bridge-then play
G------------------------------------]
D----66-67----------66-67------------]
A--44--4----0--0--44--4--------------]
E------------------------------------]

Bridge
G------------------------------------------------------------]
D------------------------------------------------------------]
A---0--------------------------------------------------------]
E----------3-------0--------3-(repeat this G the last time)--]X3






main riff #1 pre chorus
g-------------] g----------------------------]
d-------------] d----------------------------]
a-------------] a----------------------------]
e--5-5---9-9--] e-55555555555-777777777-7777-]
b-------------] b----------------------------]

chorus
g------------------------------------------------------]
d--------------------6-6----6------------------66--7---]
a--------------0-4-4-----7-7---------------0-44--55----]
e-7-5-5--7-5-5----------------7-5-5--7-5-5-------------]
b------------------------------------------------------]

bass solo
g-----------------xx12-------------]
d------7-7-7---------12---9--------]
a-----5-5-5-5----------12---9h10-9-]
e-5-5---------5-------------------]
b----------------------------------]

bass solo cont'n
g-----------------xx12--------------]
d------7-7-7----------12----9h10-10-]
a-----5-5-5-5-----------12----------]
e-5-5---------5--------------------]
b-----------------------------------]

main riff #2
g-------------------------------]
d--------------------6-6----7-7-]
a------------------------5-5----]
e-5-5--9-9--5-5-----------------]
b-------------------------------]

bridge
g-----------------------------------]
d-----------------------------------]
a-----------------------------------]
e-5--5-5---3--3-3---0--0-0-0--3-3-3-]
b-----------------------------------]

ending
g------------------]
d-----6-6----7-7---]
a-4-4----5-5-------]
e---------------5--]
b------------------]

there, hope you enjoy it.



Get this song at amazon.com      Ebay     Ringtones Ringtones  


Learn to play: Songwriting, Piano, Harmonica, Guitar
More Incubus lyrics available at Muzikum

Related Incubus Bass Tabs

Version bass
A Certain Shade Of Green bass
Make Yourself (4 String) bass
Zee Deveel bass
I Wish You Were Here bass
Steller .. Great bass
Just A Phase bass
Take Me To Your Leader bass
Magic Medicine bass
Clean bass
Vitamin bass
Leech bass
Megalomaniac bass
Monuments And Melodies bass
Favorite Things bass
Da Warmth bass
Are You In bass
Aswethinkweiz bass
Wish You Were Here bass
Anna Molly bass


Guitar Tabs









All tabs are property and copyright of their owners. All tabs provided for educational purposes only. Privacy Policy, DMCA