Incubus

Speak Free Bass Tabs



More from Incubus

Incubus Tabs
Incubus Chords
Incubus Bass
Incubus Lyrics



Artist Incubus
Title - Speak Free

Standard Tuning

Intro
||-------------------------------------||------------------------------
||*-----------------------------------*||------------------------------
||--7-6-5---5--------------------------||-7-6-5---5--------------------
||*-------7---7-6-5-3-6-5-3-5-3-0-0-0-*||-------7---7-6-5-3-6-5-3--3-3-
||-------------------------------------||------------------------------


---||----------2h4-------7-----9-||---------2h4------------------||----
---||*---2h4-4-------------------||---2h4-4-----------7-------7-*||----
---||--------------0h5-5---7-7---||------------------------------||----
-3-||*-0-------------------------||-0-----------0h5-5---0h5-5---*||-0--
---||----------------------------||------------------------------||----
T T T P T T P T T P T T T P T T P T T P T
Verse
-------2h4-------7-----9-||--------12---------------||----------2h4----
-2h4-4-------------------||--12h14----14-12--------||*---2h4-4--------
-----------0h5-5---7-7---||-------------------------||--------------0h-
-------------------------||-------------------3-3-3-||*-0--------------
-------------------------||-------------------------||-----------------
T T P T T P T T P T T T P T
Chorus
---------7-----9-||---------2h4------------------||--------------------
-----------------||---2h4-4-----------7-------7-*||--------------------
-(0h)5-5---7-7---||------------------------------||-----------------12-
-----------------||-0-----------0h5-5---0h5-5---*||-7-5-7-5--x-7-5-----
-----------------||------------------------------||--------------------
T T P T T P T T T P T T P T T P

-------------------------------||-------------------------||-----------
---------12h14-12----12--------||-------------------------||-----------
-(12)h14----------14----14-12-||-------------------------||-----------
-------------------------------||-7-5-7-5--x-7-5-7--7-6-5-||-7-5-7-5---
-------------------------------||-------------------------||-----------

Verse
-------------------------------------||----------------||----------2h4-
---------------12----------12--------||----------------||*---2h4-4-----
---------12h14----14-12-14----14-12-||----------------||--------------
-x-7-5-------------------------------||-7-5-7-5--x-7--||*-0-----------
-------------------------------------||----------------||--------------
T T T P

-------7-----9-||---------2h4------------------||--------12------------
---------------||---2h4-4-----------7-------7-*||--12h14----14-14-12--
-0h5-5---7-7---||------------------------------||----------------------
---------------||-0-----------0h5-5---0h5-5---*||----------------------
---------------||------------------------------||----------------------
T T P T T P T T T P T T P T T P

-------||----------2h4-------7-----9-||---------2h4-----------------||-
-------||*---2h4-4-------------------||---2h4-4----------7-------7-*||-
-------||--------------0h5-5---7-7---||-----------------------------||-
-3-3-3-||*-0-------------------------||-0----------0h5-5---0h5-5---*||-
-------||----------------------------||-----------------------------||-
T T T P T T P T T P T T T P T T P T T P
Chorus
---------------------------------------------||------------------------
-----------------------12h14-12----12--------||------------------------
-----------------12h14----------14----14-12-||------------------------
-7-5-7-5--x-7-5------------------------------||-7-5-7-5--x-7-5-7--7-6--
---------------------------------------------||------------------------


---||------------------------------------------------||----------------
---||-----------------------12h14-12----12h14-12-----||----------------
---||-----------------12h14----------14----------14-||----------------
-5-||-7-5-7-5--x-7-5---------------------------------||-7-5-7-5--x-7--
---||------------------------------------------------||----------------


||----------2h4-------7-----9-||---------2h4------------------||-------
||*---2h4-4-------------------||---2h4-4-----------7-------7-*||-12h14-
||--------------0h5-5---7-7---||------------------------------||-------
||*-0-------------------------||-0-----------0h5-5---0h5-5---*||-------
||----------------------------||------------------------------||-------
T T T P T T P T T P T T T T T T P T T P
Bridge
-12---------------||-----------------------------------||--------------
----14-12--------||*---------------------------------*||*-------------
------------------||--0-5-6-7-----------------------5--||--7-6-5---5---
------------3-3-3-||*---------0-5-6-7-0-4-5-6-0-3-5---*||*-------7---7-
------------------||-----------------------------------||--------------


------------------------||-------------------------------||------------
-----------------------*||-------------------------5-5-5-||*-----------
------------------------||-7-6-5---5---------------------||--7-6-5---5-
-6-5-3-6-5-3-5-3-0-0-0-*||-------7---7-6-5-3-6-5-3-------||*-------7---
------------------------||-------------------------------||------------
P P P

----------------------||--------------------------------||---------2h4-
---------------------*||--------------------------------||*--2h4-4-----
----------------------||-7-6-5---5----------------------||-------------
-7-6-5-3-6-5-3-0-0-0-*||-------7---7-6-5-3-6-5-3--3-3-3-||*-0----------
----------------------||--------------------------------||-------------


-------7-----9-||---------2h4------------------||----------------------
---------------||---2h4-4-----------7-------7-*||----------------------
-0h5-5---7-7---||------------------------------||----------------12h14-
---------------||-0-----------0h5-5---0h5-5---*||-7-5-7-5--x-7-5-------
---------------||------------------------------||----------------------


-----------------------||-------------------------||-------------------
-12h14-12----14--------||-------------------------||-------------------
----------14----14-12-||-------------------------||-------------------
-----------------------||-7-5-7-5--x-7-5-7--7-6-5-||-7-5-7-5--x-7-5----
-----------------------||-------------------------||-------------------


--------------------||---------------||----------2h4-------7-----9-||--
----12h14-12--------||---------------||*---2h4-4-------------------||--
-12----------14-12-||---------------||--------------0h5-5---7-7---||--
--------------------||-7-5-7-5--x-7-||*-0-------------------------||--
--------------------||---------------||----------------------------||--
T T T P T T P T T P

---------2h4------------------||--------12----------------||-----------
---2h4-4-----------7-------7-*||*-12h14----14-12--------*||-----------
------------------------------||--------------------------||-----------
-0-----------0h5-5---0h5-5---*||*------------------3-3-3-*||-3-3-3-3-3-
------------------------------||--------------------------||-----------
T T T P T T P T T P
Bass tacet Sampled fade out
------------------||---------------------------------------------------
------------------||---------------------------------------------------
------------------||---------------------------------------------------
-3-3-3-3-3-3-3-3-||---------------------------------------------------
------------------||---------------------------------------------------

Sorry about the length of this tab but I wanted to transcribe all of the
variations. Please feel free to submit any comments, suggestions, etc to me at
oysterbass@hotmail.com.

Please rate this tab and take a look at my other work, thanks!

- Chris Purcell. Bassist of Several Shades of Soul (www.severalshadesofsoul.cjb.net)

Taken from The BassMasta -- http://www.tabs-database.com



Get this song at amazon.com      Ebay     Ringtones Ringtones  


Learn to play: Songwriting, Piano, Harmonica, Guitar
Also available at Muzikum: Incubus - Speak Free lyrics

Related Incubus Bass Tabs

A Kiss To Send Us Off bass
Redefine bass
Vitamin bass
Dig bass
Calgone bass
Calgone (secret Songs / Secret Part) bass
Here In My Room bass
Azwethinkweiz bass
Talk Show On Mute bass
Southern Girl bass
11 A. M. bass
Steller Make Yourself bass
Consequence bass
Clean bass
Redefine (5 String) bass
Made For A Tv Movie bass
Familiar bass
Nebula bass
Make Yourself bass
Pardon Me (4 String) bass


Guitar Tabs









All tabs are property and copyright of their owners. All tabs provided for educational purposes only. Privacy Policy, DMCA