Incubus

Speak Free Intro Bass Tabs



More from Incubus

Incubus Tabs
Incubus Chords
Incubus Bass
Incubus Lyrics




G--987--7----------------------
D------9--987----87-----7------ x3
A-------------10----10----10--7
E------------------------------

G--987--7-------------------------
D------9--987----87--------------7
A-------------10----10----101010-- x1
E---------------------------------

G------------------------9--------9
D-----------x-5h7------------------
A----x-5h7---------5/7x-----5/7x---
E-0--------------------------------
s s s s s s s p s s p
G----------------------------------
D-----------x-5h7---------7-------7
A----x-5h7-------------------------
E-0----------------3/5-x-----3/5x--
s s s s s s s p s s p
G------------------------9--------9
D-----------x-5h7------------------
A----x-5h7---------5/7x-----5/7x---
E-0--------------------------------
s s s s s s s p s s p
G----------------------------------
D-----------x-5h7---------7-------7
A----x-5h7-------------------------
E-0----------------3/5-x-----3/5x--
s s s s s s s p s s p



Get this song at amazon.com      Ebay     Ringtones Ringtones  


Learn to play: Songwriting, Piano, Harmonica, Guitar
More Incubus lyrics available at Muzikum

Related Incubus Bass Tabs

Summer Romance bass
Glass bass
New Skin 4 String bass
When It Comes bass
Summer Romance (anti-gravity) bass
Consequence bass
A Certain Shade Of Green bass
Admiration bass
Stellar bass
Blood On The Ground bass
Sink Beneath The Line bass
Wish You Were Here (4 String) bass
Magic Medicine bass
Talk Show On Mute bass
Adolescents bass
Azwethinkweiz bass
Trouble In 421 bass
I Wish You Were Here bass
A Crow Left Of The Murder bass
Priceless (complete) bass


Guitar Tabs









All tabs are property and copyright of their owners. All tabs provided for educational purposes only. Privacy Policy, DMCA