Incubus

Sink Beneath The Line Bass Tabs



More from Incubus

Incubus Tabs
Incubus Chords
Incubus Bass
Incubus Lyrics



bassist:Dirk Lance
Album: Fungus Amongus
Band:Incubus


INTRO


LENEND: += natural harmonic
H=hammer on
P= pull off
s=slap
p=pop
X=slap mute
L=left hand slap
Wait for guitar to finish its riff....

Then
G------
D------
A-3-2-1
E------

THEN
MAIN RIFF

G----------------------5--0h5-4-3------
D---- 5--0h5-4-3------5-----------0-3h5
A-- 5------------6---3-----------------
E 3------------------------------------

REPEAT THESE 2x

G----------------------5--0h5-4-3-
D---- 5--0h5-4-3------5-----------
A-- 5------------6---3------------
E 3-------------------------------


Verse
G-----0h765----------
D---5------0h765-----
A-55-------------7655
E--------------------

REPEAT THESE 2x

G-------5h7-5h7-x--
D---5-----------7p5
A-55---x-x---x-----
E------------------
sps ps p

THEN

G----
D----
A----
E-1-3

THEN MAIN RIFF
THEN VERSE
THEN MAIN RIFF

THEN

G-5-4-3
D------
A------ REPEAT 3 or 4X im not shure
E------

THEN....gotta get the timing, its kinda wierd

G-----------------------------------------------7+
D-5p3---3--5p3-3--------------5p3-3----3--5p3-3---
A----3h5---------33h5p3h5p3h5-------3h5-----------
E-------------------------------------------------

G-----------------------------------------------777
D-5p3---3--5p3-3--------------5p3-3----3--5p3-3----5+
A----3h5---------33h5p3h5p3h5-------3h5-----------
E-------------------------------------------------

THEN THIS....you gotta figure out the timing
G-----------------
D-5p3-------------
A-------5p3-------
E--------------3p1

G------------------
D-5p3--------------
A------------------
E---------------3p1

this part is wierd so just do this until the break...you have to figure out the timing
though...you can put some slides in there too
G---------
D-5p3-----
A------5p3
E---------

THEN BASS SOLO
G-----------------0---0---0-------
D--------5p3-5--------------------
A------------------xx--xx--xx--5p3
E-1-2-3--------330----------------
p p ssspss pss pss
Then
G------ repeat 2 more times afer solo
D------
A------
E-1-2-3


then you do a couple of slides on the E string and go back into the main riff



If you have any questions or comments or if you want me to figure out another tab email
me at bassboy90210@hotmail.com or just im me on bassboy90210

Taken from The BassMasta -- http://www.tabs-database.com



Get this song at amazon.com      Ebay     Ringtones Ringtones  


Learn to play: Songwriting, Piano, Harmonica, Guitar
Also available at Muzikum: Incubus - Sink Beneath The Line lyrics

Related Incubus Bass Tabs

Redefine bass
A Certain Shade Of Green (acoustic) bass
New Skin 4 String bass
Warning (standard Tuning) bass
Are You In bass
Idiot Box bass
Pantomime bass
Version bass
Nice To Know You bass
Pistola bass
Sick sad little world bass
Calgone bass
Summer Romance (anti-gravity) bass
11am bass
Drive Live bass
The Warmth bass
Glass bass
Nowhere Fast bass
Just A Phase bass
New Skin bass


Guitar Tabs









All tabs are property and copyright of their owners. All tabs provided for educational purposes only. Privacy Policy, DMCA