Incubus

Sick sad little world Tabs



More from Incubus

Incubus Tabs
Incubus Chords
Incubus Bass
Incubus Lyrics



Incubus - Sick Sad Little World

Intro

e|------------------------------------------------------------------------|
B|-----------------------------------------------------0-0--------------------|
G|----------------------------------------------------4-4-x-1--1-1-x-x-------|
D|------------------4--------------2-----------------2-2-x-2--2-2-x-x-4-4-4-|
A|-------4--4---------------0h2h4----4-2-0-2-4--4-4-x-0--0-0-x-x-4-4-4-|
E|--0-4---4--4--0-4---4-0~~-------------------------------------------2-2-2-|

e|------------------------------------------------------------------------|
B|----------------------------------------------------0-0--------------------|
G|----------------------------------------------------4-4-x------------------|
D|------------------4--------------2-----------------2-2-x--4-4-4-x-x-7-7-7-|
A|-------4--4---------------0h2h4----4-2-0-2-4--4-4-x--4-4-4-x-x-7-7-7-|
E|--0-4---4--4--0-4---4-0~~-------------------------------2-2-2-x-x-5-5-5-|


[00:25]

e|-------------------------------------------------------------------------------------------------|
B|-------------------------------------------------------------------------------------------------|
G|-----------------------------------------------------------------------------------6---6-6-6---6-|
D|-------------------------------------------------------------------------------------------------|
A|-4---4-4-4---4------4---4-4-4---4-0---0-0-0---0--------------------------------------------------|
E|-------------------------------------------------2---2-2-2---2------0---0-0-0---0----------------|


e|-------------------------------------------------------------------------------------------------|
B|-------------------------------------------------------------------------------------------------|
G|-------------------------------------------------------------------------------------------------|
D|-----------------------------------------------------------------------------------6---6-6-6---6-|
A|-4---4-4-4---4------4---4-4-4---4-0---0-0-0---0--------------------------------------------------|
E|-------------------------------------------------2---2-2-2---2------0---0-0-0---0----------------|


[00:51]

2X
e|-------------------------------------------------|
B|-------------------------------------------------|
G|----6------6-7-2---------------------------------|
D|-4--6---4--6-7-2---------------------------------|
A|-4--4---4--4-5-0---------------------------------|
E|-2------2----------------------------------------|

[02:56]

E||----------------------------------|---------0~-------|
B||----------------------------------|---------0~-------|
G||------4---4-------4---4-------4---|------2~-------|
D||----------------------------------|---------2~-------|
A||----4---4---4---4---4---4---4-----|--4--0~-------|
E||--0-----------0-----------0-------|---------------|
~ = wah-wah


e|---------------------------------------------------------------|
B|---------------------------------------------------------------|
G|---------------------------------------------------------------|
D|-4/9~--9/11~-----11-13-11-13----11-13-11-13-11-13-14--9---(14)-|
A|---------------------------------------------------------------|
E|---------------------------------------------------------------|

[03:22]

e|-------------------------------------------------------------------------|
B|-------------------------------------------------------------------------|
G|-8/118--8/118---6/116----6h8p6-2h4--4/2-2-1-1--2--1h2p1---------------|
D|-------------------------------------------------------2--2/4--4---4/6-2-|
A|-------------------------------------------------------------------------|
E|-------------------------------------------------------------------------|


e|-12--12---------9------7------4--2h4p2p0h2---4------------------------------------4-5-
B|-------9--9-7-----74----42-----------------------2/4-4/5--52--4p2-4/5-2-4-5-----
G|-------------------------------------------------------------------------
D|-------------------------------------------------------------------------
A|-------------------------------------------------------------------------
E|-------------------------------------------------------------------------

[03:45]

e|-5//---------------12------------------------------------0--0--0-0-0-0-0-|
B|-5//---12---------------12--------------------------5-/7--9--0-0-0-0-0-|
G|-----------------9-----------11-------------------6----------9-9/8-8/9-|
D|----------------------9-------------------------5----------------------|
A|---------------------------9-------------------------------------------|
E|---------------------------------9/7----7/9----------------------------|

[03:59]

pm.......
e|-12-14-------------------------------------14--12--14--12-14-12--20b--20b-
B|-------------------12-14-12-----12/14--12---------------------------------
G|---------11-13------------------------------------------------------------
D|--------------------------------------------------------------------------
A|--------------------------------------------------------------------------
E|--------------------------------------------------------------------------


e|-12/14--12--------------------------------------------------|
B|------------14-12---------------------12-14-12-------14-12--|
G|------------------11---11bbr----11-13-----------11b---------|
D|------------------------------------------------------------|
A|------------------------------------------------------------|
E|------------------------------------------------------------|

[04:18]

e|----------------------------------9--|
B|----5--------5--------5----------x--|
G|--6---6----6---6----6---6------6--|
D|--------5--------5--------5-------|
A|----------------------------------|
E|----------------------------------|

This part is picked really fast with echo and wah/wah
e|---9---7--12--14--16------------------------|
B|---------------------14-12--9--7------------|
G|--------------------------------------------|
D|--------------------------------------------|
A|--------------------------------------------|
E|--------------------------------------------|

turn effect off here
e|-11-12-11--9--11-12-14-16-14-16-12-16-12-16-12-|
B|-----------------------------------------------|
G|-----------------------------------------------|
D|-----------------------------------------------|
A|-----------------------------------------------|
E|-----------------------------------------------|

p= pulloff
e|-16p-12------16p-12------16-16-12-19-19--------|
B|-------16p-12------16p-12----------------------|
G|-----------------------------------------------|
D|-----------------------------------------------|
A|-----------------------------------------------|
E|-----------------------------------------------|

e|--19p-14------19p-14------19-19-19-19-19-------|
B|--------19p-14------19p-14---------------------|
G|-----------------------------------------------|
D|-----------------------------------------------|
A|-----------------------------------------------|
E|-----------------------------------------------|


E||----------------------------------|----------0~-------|
B||----------------------------------|----------0~-------|
G||------4---4-------4---4-------4---|-------2~-------|
D||----------------------------------|----------2~-------|
A||----4---4---4---4---4---4---4-----|--4---0~-------|
E||--0-----------0-----------0-------|---------------|
~ = wah-wah

Song ends with main riff.


Get this song at amazon.com      Ebay     Ringtones Ringtones  


Learn to play: Songwriting, Piano, Harmonica, Guitar
Also available at Muzikum: Incubus - Sick, sad little world lyrics

Related Incubus Tabs

Megalomanic tabs
I Miss You Acoustic tabs
Deep Inside tabs
Anti-Gravity Love Song tabs
Drive2 Crd tabs
A Certain Shade Of Green tabs
Clean2 tabs
Blood On The Ground tabs
Circles tabs
Pardon Me tabs
In The Company Of Wolves tabs
I Miss You tabs
Made For Tv tabs
Hilikus Solo tabs
A Crow Left Of The Murder (acoustic) tabs
Stellar Corrected tabs
Robyn Rules tabs
Stellar Intro tabs
Pardon Me Studio tabs
Southern Girl tabs


Guitar Tabs









All tabs are property and copyright of their owners. All tabs provided for educational purposes only. Privacy Policy, DMCA