Incubus

Shaft Bass Tabs



More from Incubus

Incubus Tabs
Incubus Chords
Incubus Bass
Incubus Lyrics




Band:Incubus
Song:Shaft

Guitar intro

Intro (pop these notes)
G--7~-|-------------------7~--|
D--5~-|-------------------5~--|
A-----|--5h7-7/8---5h7-77-----|x8
E-----|-----------------------|

Chorus
x3 x1
G-------------------|---------------------------------------------------
D-------------------|---------------------------------------------------
A-------------------|---------------------------------------------------
E--0~-0h1-0h1-0h1---|-0~-0h1/33-/-666----------------------------------- x2

Verse
G---------------------------7~--
D---------------------------5~--
A------------------------------- x4
E-0~-1-1-00--0~-xx-0h1p0-x------

G------------------------|
D------------------------|
A------------------------| x1
E-0~-0h1-0h1-0h1--0h1p0--|

Verse x4

Chorus x2

G---------------------|
D---------------------|
A---------------------|x1
E-000-000-000-000-----|

G-------------|
D-------------|
A-----5h7777--|x4
E-000---------|

G-----------7~-----------7~--------------------------------------------|
D-----------5~-----------5~----------5h7775--------------5h77788-------|
A----5h7777-------5h7777-------5h7777-------57----5h7777--------7-7h8--|x1
E-000----------000----------000----------------------------------------|

G----------------7~-----------------------|
D----------------5~-------------5-5-------|
A--5h7777-5h7777----5h7777-5h777-7-7-5h7--|x1
E-----------------------------------------|

G----------------7~-----------------------|
D----------------5~-----------------------|
A--5h7777-5h77-0----5h7777-5h77-0-8-8-----|x11
E-----------------------------------------|

Chorus x4

End with
G---7~--------|
D---5~--------|
A-------------|
E-------------|

This song is 99% correct. please rate.



Get this song at amazon.com      Ebay     Ringtones Ringtones  


Learn to play: Songwriting, Piano, Harmonica, Guitar
Also available at Muzikum: Incubus - Shaft lyrics

Related Incubus Bass Tabs

Privilege bass
Warning (5 String) bass
Wish You Were Here (4 String) bass
Sink Beneath The Line bass
Made For A Tv Movie bass
Here In My Room bass
Leech bass
Glass (complete Five String) bass
Megalomaniac bass
Wish You Were Here[100% Correct] bass
Have You Ever bass
Familiar bass
Magic Medicine bass
Zee Deveel bass
Shaft bass
Anti-gravity bass
Make Yourself (4 String) bass
A Crow Left Of The Murder bass
Megalomaniac Perfect With All Fills bass
Southern Girl bass


Guitar Tabs









All tabs are property and copyright of their owners. All tabs provided for educational purposes only. Privacy Policy, DMCA