Incubus

Rogues Tabs



More from Incubus

Incubus Tabs
Incubus Chords
Incubus Bass
Incubus Lyrics



-------------------------------------------------------------------------------

ROGUES - Incubus

-------------------------------------------------------------------------------



Band: Incubus

Song: Rogues

Album: Light Grenades

Tabbed By: Rick Gardiner

e-mail: webmaster at tabs-database.com.com





This songs one of my favourites from the new album. I know this tab isn't

100%, but I'm pretty sure it's close enough. Have fun!





Tuning: Standard



Intro X2 - Clean



e|----------------------------------------------------------------------|

B|----------------------------------------------------------------------|

G|----------------------------------------------------------------------|

D|-----0-----0-----0-----0-----0-------0-----0-----0-----0-----0--------|

A|---0-----0-----0-----0-----0---0---0-----0-----0-----0-----0---0------|

E|-2----/8-----8-----8-----8------/12----14----14----14----14-----------|



e|----------------------------------------------------------------------|

B|----------------------------------------------------------------------|

G|----------------------------------------------------------------------|

D|-----0-----0-----0-----0-----0-------0-----0-----0-----0-----0--------|

A|---0-----0-----0-----0-----0---0---0-----0-----0-----0-----0---0------|

E|-2----/8-----8-----8-----8------/12----12----10----10----10-----------|



Verse X2 - Dirty

X3

e|--------------------------------|

B|--------------------------------|

G|---------------------------2----|

D|--------------------------------|

A|-2-2--02-5---22220022-5---------|

E|------------------------------5-|



e|--------------------------------|

B|--------------------------------|

G|--------------------------------|

D|--------------------------------|

A|-2-2--02-5---555555555555555----|

E|--------------------------------|



Pre-Chorus - Slighty Dirty

X2

e|------------------------------------------------------------------|

B|--(9)-9-9-XX-9-9---8-8-8-XX-8-8---7-7-7-XX-7-7---7-7-7-XX-7-7-----|

G|--(7)-7-7-XX-7-7---7-7-7-XX-7-7---4-4-4-XX-4-4---4-4-4-XX-4-4-----|

D|--(9)-9-9-XX-9-9---9-9-9-XX-9-9---4-4-4-XX-4-4---4-4-4-XX-4-4-----|

A|------------------------------------------------------------------|

E|------------------------------------------------------------------|



e|------------------------------------------------------------------|

B|----9-9-9-XX-9-9---8-8-8-XX-8-8---7-7-7-XX-7-7---6-6-6-XX-6-6-----|

G|----7-7-7-XX-7-7---7-7-7-XX-7-7---4-4-4-XX-4-4---4-4-4-XX-4-4-----|

D|----9 9-9-XX-9-9---9-9-9-XX-9-9---4-4-4-XX-4-4---5-5-5-XX-5-5-----|

A|------------------------------------------------------------------|

E|------------------------------------------------------------------|



e|----X-X-X----X-X---X-X-X----X-X---X-X-X----X-X---X-X-X----X-X-X-X-|

B|----5-5-5-XX-5-5---5-5-5-XX-5-5---7-7-7-XX-7-7---7-7-7-XX-7-7-7-7-|

G|----6-6-6-XX-6-6---6-6-6-XX-6-6---8-8-8-XX-8-8---7-7-7-XX-7-7-7-7-|

D|----6-6-6-XX-6-6---6-6-6-XX-6-6---8-8-8-XX-8-8---7-7-7-XX-7-7-7-7-|

A|----4-4-4----4-4---4-4-4----4-4---6-6-6----6-6---5-5-5----5-5-5-5-|

E|----4-4-4----4-4---4-4-4----4-4---6-6-6----6-6---5-5-5----5-5-5-5-|



Chorus - Dirty

X4

e|---X--X--X--X--X--X---X--X--X--X--X--X----------------------------------|

B|---8--8--8--8--8--8---7--7--7--7--7--7----------------------------------|

G|--(7)(7)(7)(7)(7)(7)-(7)(7)(7)(7)(7)(7)--7--7-7---------7--7-7----------|

D|---9--9--9--9--9--11--9--9--9--9--9--11--7--7-7---------7--7-7----------|

A|---7--7--7--7--7--7---7--7--7--7--7--7---5--5-5-/9-9-9--5--5-5-/9-9-9---|

E|---7--7--7--7--7--7---7--7--7--7--7--7---5--5-5---------5--5-5----------|

|_____________________________|

X2 on fourth repeat

Verse - Dirty

X3

e|--------------------------------|

B|--------------------------------|

G|---------------------------2----|

D|--------------------------------|

A|-2-2--02-5---22220022-5---------|

E|------------------------------5-|



e|--------------------------------|

B|--------------------------------|

G|--------------------------------|

D|--------------------------------|

A|-2-2--02-5---555555555555555----|

E|--------------------------------|



Pre-Chorus - Slighty Dirty

X2

e|------------------------------------------------------------------|

B|--(9)-9-9-XX-9-9---8-8-8-XX-8-8---7-7-7-XX-7-7---7-7-7-XX-7-7-----|

G|--(7)-7-7-XX-7-7---7-7-7-XX-7-7---4-4-4-XX-4-4---4-4-4-XX-4-4-----|

D|--(9)-9-9-XX-9-9---9-9-9-XX-9-9---4-4-4-XX-4-4---4-4-4-XX-4-4-----|

A|------------------------------------------------------------------|

E|------------------------------------------------------------------|



e|------------------------------------------------------------------|

B|----9-9-9-XX-9-9---8-8-8-XX-8-8---7-7-7-XX-7-7---6-6-6-XX-6-6-----|

G|----7-7-7-XX-7-7---7-7-7-XX-7-7---4-4-4-XX-4-4---4-4-4-XX-4-4-----|

D|----9 9-9-XX-9-9---9-9-9-XX-9-9---4-4-4-XX-4-4---5-5-5-XX-5-5-----|

A|------------------------------------------------------------------|

E|------------------------------------------------------------------|



e|----X-X-X----X-X---X-X-X----X-X---X-X-X----X-X---X-X-X----X-X-X-X-|

B|----5-5-5-XX-5-5---5-5-5-XX-5-5---7-7-7-XX-7-7---7-7-7-XX-7-7-7-7-|

G|----6-6-6-XX-6-6---6-6-6-XX-6-6---8-8-8-XX-8-8---7-7-7-XX-7-7-7-7-|

D|----6-6-6-XX-6-6---6-6-6-XX-6-6---8-8-8-XX-8-8---7-7-7-XX-7-7-7-7-|

A|----4-4-4----4-4---4-4-4----4-4---6-6-6----6-6---5-5-5----5-5-5-5-|

E|----4-4-4----4-4---4-4-4----4-4---6-6-6----6-6---5-5-5----5-5-5-5-|



Chorus - Dirty

X4

e|---X--X--X--X--X--X---X--X--X--X--X--X----------------------------------|

B|---8--8--8--8--8--8---7--7--7--7--7--7----------------------------------|

G|--(7)(7)(7)(7)(7)(7)-(7)(7)(7)(7)(7)(7)--7--7-7---------7--7-7----------|

D|---9--9--9--9--9--11--9--9--9--9--9--11--7--7-7---------7--7-7----------|

A|---7--7--7--7--7--7---7--7--7--7--7--7---5--5-5-/9-9-9--5--5-5-/9-9-9---|

E|---7--7--7--7--7--7---7--7--7--7--7--7---5--5-5---------5--5-5----------|

|_____________________________|

X2 on fourth repeat

Solo - Dirty



e|-----------------------------9b10b9-7-10-7---------------------|

B|------7---9b10b9-7-9-7---7---------------------9-9b10b9-----9--|

G|---------------------------------------------7----------7------|

D|---/9---9-------------/9---9--------------/8--------------8----|

A|---------------------------------------------------------------|

E|---------------------------------------------------------------|



(Play around here, I really have no idea what Mike's doing)

e|---------10b11b10-7-10(16)(16)(16)(16)(16)(15)(15)(15)(15)(15)-|

B|-------9--------------/12--15--12--15--12--15--12--15--12--15--|

G|-----7---------------------------------------------------------|

D|---8-----------------------------------------------------------|

A|---------------------------------------------------------------|

E|---------------------------------------------------------------|



| Some kind of Wah effect starts here

e|---------------------9------9---9-----/14--------------/16---/16----16-----|

B|------------8----8-----8------8---8----------15---15-----------------------|

G|-----7-9-10---10---10----10------------------------------------------------|

D|---8--------------------------------------12----12---12----12----12----12--|

A|---------------------------------------------------------------------------|

E|---------------------------------------------------------------------------|



Weird Bends | Wah Effect Ends

e|--13-13-13-13-13-13-13-13--12/11-11/10-10-10--15b16b15\---|

B|----------------------------------------------12-12-12\---|

G|----------------------------------------------------------|

D|----------------------------------------------------------|

A|----------------------------------------------------------|

E|----------------------------------------------------------|





For the scratching part, just do a mute on all the strings around the 12th

fret and move your hand up the board at the end of every bar.





Chorus - Dirty

X4

e|---X--X--X--X--X--X---X--X--X--X--X--X----------------------------------|

B|---8--8--8--8--8--8---7--7--7--7--7--7----------------------------------|

G|--(7)(7)(7)(7)(7)(7)-(7)(7)(7)(7)(7)(7)--7--7-7---------7--7-7----------|

D|---9--9--9--9--9--11--9--9--9--9--9--11--7--7-7---------7--7-7----------|

A|---7--7--7--7--7--7---7--7--7--7--7--7---5--5-5-/9-9-9--5--5-5-/9-9-9---|

E|---7--7--7--7--7--7---7--7--7--7--7--7---5--5-5---------5--5-5----------|

|_____________________________|

X2 on fourth repeat and 2 extra 9's



| / slide up

| \ slide down

| h hammer-on

| p pull-off

| ~ vibrato

| + harmonic

| x Mute note

===============================================================================Added by tabs-database.com and our distinguished partners
Get this song at amazon.com      Ebay     Ringtones Ringtones  


Learn to play: Songwriting, Piano, Harmonica, Guitar
Also available at Muzikum: Incubus - Rogues lyrics

Related Incubus Tabs

Look Alive tabs
Make A Move tabs
Pistola tabs
Privilege tabs
Drive Corected tabs
Pardon Me Studio tabs
Pendulous Threads tabs
Battlestar Scralatchtica Btab tabs
Mexico (Acoustic) tabs
Answer tabs
Have You Ever tabs
Are You In Bass tabs
Nice To Know You Bass tabs
Incubus Science tabs
11am tabs
Drive2 tabs
Priceless tabs
New Skins tabs
When Incubus Attacks tabs
Isadore tabs


Guitar Tabs









All tabs are property and copyright of their owners. All tabs provided for educational purposes only. Privacy Policy, DMCA