Incubus

Redefine Bass Tabs



More from Incubus

Incubus Tabs
Incubus Chords
Incubus Bass
Incubus Lyrics



Song: Redefine
Band: Incubus
Album: Science
Tabbed by:Speedy AKA Lurch Speedy AKA Lurch AKA John Boy AKA Johnny B AKA Big John


I read in an interveiw that Dirk tunes his bass flat Gb,Db,Ab.Eb,Bb


Key
T = triplet (ex. 3T = -333-)
s = slap
. = pop
h = hammer on


Intro (come in with drums)
Gb|-----------------------|
Db|-----------------------|
Ab|-----------------------|
Eb|--3-3-3---3-3-3---3-3-3|


Pre-chorus (x1)
Gb|------------------|
Db|------------------|
Ab|------------------|
Eb|--3-3-3-3--6-6-6-6|
s s s s s s s s

Chorus (x3)
Gb|-----------------------------|
Db|---------------------2-------|
Ab|---2---2---2-2-2---2---2---2-|
Eb|-3-------3-------3-------3---|
s s s s s s s s s . s s .

Pre-chorus (x1)

Chorus (x3)

Fill note
Eb|-3-|

Verse A (x2)
Gb|-----------5--------9--------|
Db|---------5---5h7--7---7------|
Ab|--5--3-3----------------6----|
Eb|-----------------------------|
s s s s s . s . s s
Verse B (x1)
Gb|-----------5--------9--------|
Db|---------5---5h7--7---7---8--|
Ab|--5--3-3----------------6----|
Eb|-----------------------------|
s s s s s . s . s s .

Verse A (x2)

Chorus (x3)

Bass Solo (x7) *use an auto wah*
Gb|------------x-------------x--3--------------3--------------3---|
Db|--------x-------------x----------------------------------------|
Ab|---------------------------------------------------------------|
Eb|--0-x-x---x---x-0-x-x---x---------0-x-x-x-x------0-x-x-x-x-----|
s s s . s . s s s s . s . . s s s s s . s s s s s .

Gb|------------x---------3-----x--3--------------3-------------3---|
Db|--------x-------------------------------------------------------|
Ab|----------------------------------------------------------------|
Eb|--0-x-x---x---x-0-x-x---x---------0-x-x-x-x------0-x-x-x-x------|
s s s . s . s s s s . s . . s s s s s . s s s s s .


Pre-chorus 2 (x2)
Gb|----------------------------------------------------------|
Db|----------------------------------------------------------|
Ab|----------------------------------------------------------|
Eb|-3---3-3-3---3---3-3-3---3---3-3-3---3---3-3-3---3---3-3-3|
s s s s s s s s s s s s s s s s s s s s

Gb|----------------------------|
Db|----------------------------|
Ab|----------------------------|
Eb|--3-3---3-3-3---6-6---6-6-6-|
s s s s s s s s s s

Then play the chorus till the end

Taken from The BassMasta -- http://www.tabs-database.com



Get this song at amazon.com      Ebay     Ringtones Ringtones  


Learn to play: Songwriting, Piano, Harmonica, Guitar
Also available at Muzikum: Incubus - Redefine lyrics

Related Incubus Bass Tabs

Azwethinkweiz bass
A Certain Shade Of Green ( Perfect ) bass
Agoraphobia bass
Clean bass
Deep Inside bass
Made For Tv Movie bass
Certain Shade Of Green bass
The Warmth bass
Stellar( 4 And 5 String) bass
Megolomaniac bass
Drive bass
Answer bass
New Skin bass
Leech bass
Talk Shows On Mute bass
Pardon Me (4 String) bass
The Answer bass
Stellar bass
Dig bass
A Certain Shades Of Green [live] bass


Guitar Tabs









All tabs are property and copyright of their owners. All tabs provided for educational purposes only. Privacy Policy, DMCA

Online converter - videoconverter.com