Incubus

Redefine (5 String) Bass Tabs



More from Incubus

Incubus Tabs
Incubus Chords
Incubus Bass
Incubus Lyrics



Incubus - Redefine
tabbed by Jim Holman

This song is played on a 5-string Warwick stage - 2 bass and this is how it is played properly.
Any comments then mail me at jimmy_holman@yahoo.co.uk.

s = slap
l = left hand slap
p = pop


Intro (x3)
then
G|----------|-----------------|
D|----------|-----------------|
A|----------|-----------------|
E|----------|-----------------|
B|-3--3--3--|-3-3-3-3-6-6-6-6-|


Chorus

x3 pt2
G|------------------------------|-----------------|
D|------------------------------|-----------------|
A|---------------------3--------|-----------------|
E|---2--2--2--2---2--2---2--2---|-----------------|
B|-3------3---------3------3----|-3-3-3-3-6-6-6-6-|

then chorus (x3)
then

G|--------|
D|--------|
A|--------|
E|--------|
B|--3-----|


Verse pt1 (x2)

G|-------------------5------------9--------|
D|----------------5--------5h7--7---7------|
A|--5-------3-3-----------------------6----|
E|-----------------------------------------|
B|-----------------------------------------|

Verse pt2 (x1)
G|-------------------5-----------9---------|
D|----------------5-------5h7--7---7----8--|
A|--5-------3-3----------------------6-----|
E|-----------------------------------------|
B|-----------------------------------------|

then verse pt1
then

Chorus
then

Bass solo

(x7)
G|------------x-------------x--10-------------10-------------10--|
D|--------x-------------x----------------------------------------|
A|---------------------------------------------------------------|
E|--0-x-x---x---x-0-x-x---x---------0-x-x-x-x------0-x-x-x-x-----|
B|---------------------------------------------------------------
s l s p s p s s l s p s p p s l s s l p s l s s l p



G|------------x---------10----x--10-------------10------------10--|
D|--------x-------------------------------------------------------|
A|----------------------------------------------------------------|
E|--0-x-x---x---x-0-x-x---x---------0-x-x-x-x------0-x-x-x-x------|
B|----------------------------------------------------------------|
s l s p x p s s l s p s p p s l s s l p s l s s l p

then

(x2)
G|----------|
B|----------|
A|----------|
E|----------|
B|-3--3--3--|

G|-----------------------------------------------------------------------------|
D|-----------------------------------------------------------------------------|
A|-----------------------------------------------------------------------------|
E|-----------------------------------------------------------------------------|
B|-3-3----3--3-3-3----3--3-3-3----3--3-3-3----3--3-3-3----3--3-3-3----3--3-3-3-|

G|---------------------------------|
B|---------------------------------|
A|---------------------------------|
E|---------------------------------|
B|-3-3-3-3-3-3-3-3-6-6-6-6-6-6-6-6-|

then chorus (x2)
thats it e-mail me if you have any comments.
Jimmy_Holman@yahoo.co.uk

Taken from The BassMasta -- http://www.tabs-database.com



Get this song at amazon.com      Ebay     Ringtones Ringtones  


Learn to play: Songwriting, Piano, Harmonica, Guitar
Also available at Muzikum: Incubus - Redefine 5 String lyrics

Related Incubus Bass Tabs

Redefine bass
Monuments And Melodies bass
Wish You Were Here (4 String) bass
Nice To Know You bass
Take Me To Your Leader bass
Warning bass
Southern Girl bass
Answer bass
Echo bass
Make A Move bass
11 A. M. bass
Glass bass
Summer Romance (anti-gravity) bass
Da Warmth bass
Pardon Me bass
Nowhere Fast bass
Stellar bass
Admiration bass
Under My Umbrella(complete Five String) bass
Redefine (5 String) bass


Guitar Tabs









All tabs are property and copyright of their owners. All tabs provided for educational purposes only. Privacy Policy, DMCA