Incubus

Redefine (4 String) Bass Tabs



More from Incubus

Incubus Tabs
Incubus Chords
Incubus Bass
Incubus Lyrics



Song:Redifine
Band:Incubus
Album:S.C.I.E.N.C.E.
Tabber: Jim Holman (Original) funny_little_guy@hotmail.com (This version in drop D)

Much thanks to Jim Holman for his excelent tab but this is for all of us not blessed with
an extra string.


s = slap
l = left hand slap
p = pop

Intro (x3)
then
G|----------|-----------------|
D|----------|-----------------|
A|----------|-----------------|
D|-0--0--0--|-0-0-0-0-3-3-3-3-|



Chorus

x3 pt2
G|------------------------------|-----------------|
D|------------------------------|-----------------|
A|---------------------3--------|-----------------|
D|-0-6--6-06--6---6-06---6-06---|-0-0-0-0-3-3-3-3-|

then chorus (x3)
then

G|--------|
D|--------|
A|--------|
D|--0-----|


Verse pt1 (x2)

G|-------------------5------------9--------|
D|----------------5--------5h7--7---7------|
A|--5-------3-3-----------------------6----|
E|-----------------------------------------|

Verse pt2 (x1)
G|-------------------5-----------9---------|
D|----------------5-------5h7--7---7----8--|
A|--5-------3-3----------------------6-----|
E|-----------------------------------------|

then verse pt1
then

Chorus
then

Bass solo

(x7)
G|------------x-------------x--10-------------10-------------10--|
D|--------x-------------x----------------------------------------|
A|---------------------------------------------------------------|
D|--2-x-x---x---x-2-x-x---x---------2-x-x-x-x------2-x-x-x-x-----|
s l s p x p s s l s p s p p s l s s l p s l s s l p



G|------------x---------10----x--10-------------10------------10--|
D|--------x-------------------------------------------------------|
A|----------------------------------------------------------------|
D|--2-x-x---x---x-2-x-x---x---------2-x-x-x-x------2-x-x-x-x------|
s l s p x p s s l s p s p p s l s s l p s l s s l p

then

(x2)
G|----------|
B|----------|
A|----------|
D|-0--0--0--|


G|-----------------------------------------------------------------------------|
D|-----------------------------------------------------------------------------|
A|-----------------------------------------------------------------------------|
D|-0-0----0--0-0-0----0--0-0-0----0--0-0-0----0--0-0-0----0--0-0-0----0--0-0-0-|

G|---------------------------------|
B|---------------------------------|
A|---------------------------------|
D|-0-0-0-0-0-0-0-0-3-3-3-3-3-3-3-3-|

Taken from The BassMasta -- http://www.tabs-database.com



Get this song at amazon.com      Ebay     Ringtones Ringtones  


Learn to play: Songwriting, Piano, Harmonica, Guitar
More Incubus lyrics available at Muzikum

Related Incubus Bass Tabs

Da Warmth bass
Shaft bass
Privilege bass
Azwethinkweiz bass
Southern Girl bass
Favorite Things bass
Pardon Me (4 String) bass
Make Yourself (4 String) bass
Consequence bass
Answer bass
Steller .. Great bass
The Answer bass
Medium bass
11 A. M. bass
Megalomaniac bass
Hilikus bass
Nowhere Fast bass
Talk Show On Mute bass
Admiration bass
Have You Ever bass


Guitar Tabs









All tabs are property and copyright of their owners. All tabs provided for educational purposes only. Privacy Policy, DMCA