Incubus

Psychopsilocybin Bass Tabs



More from Incubus

Incubus Tabs
Incubus Chords
Incubus Bass
Incubus Lyrics




intro
G :-----7~--------------------------------------7---7------------------|
D :-----0~------------------0~-------------5-h7-----0-----------0------|
A :--------------------------------------------------------------------|
E :-------------------0-1-3-------------------------------0-1-3--------|
p s s s p p p p s s s p

verse
G :----------------------------7-7---5-7-----------------------|
D :--0--0---0-0-------0-0-0-0------7----------12-10------------|
A :-------------------------------------------------12-11-10-8-|
E :-------------0-1-3------------------------------------------|
p p p p s s s p p p p


solo riff
G :--------------------------------------------------------------------|
D :--------------------------------------------------12-10-------------|
A :--------------------------------------------------------12-11-10-8--|
E :--------------0--/12----0--/12-----3-5------------------------------|
s s s s

solo
G :-------------5-h7-7-7-7-7-5-/12-10-10-10-10-10-10-10-10-h12-12-12-12
D :--------------------------------------------------------------------
A :--------------------------------------------------------------------
E :--------------------------------------------------------------------

G :10------------------------------12-12-12-10----10---------------------
D :---12---------------------------------------12----12-11-10----10------
A :------10-10-10-10-10-10-10-10------------------------------12----12-11
E :----------------------------------------------------------------------

G :----------------------------------------------------------------------
D :-------12-12-12-12-10-h12-12-12-12-12-12-12-------12-12-12-12-12-12-10
A :10---------------------------------------------12---------------------
E :----10-----------------------------------------10---------------------

G :-----------------------------------------------------------------|
D :------10------------------------12--12-12-12-12--12-10-----------|
A :12-11----12-10-12-10-8-------12------------------------12-11-10-8|
E :-----------------------10----10----------------------------------|

break
G :----------------------|
D :----------------------|
A :----------------------|
E :--5-5-6-6-7-7-8-8-----|

G :----------------------------------7------------
D :----7-------------------------------5-5-7-3-3-5
A :------5-5-7--3-3-5--------------5--------------
E :--5----------------3-4-5-----------------------

G :----------------------------------------------------------------------
D :-----------7----------------------------------------------------------
A :-3-4-5-------5-5-7-3-3-5------------2-0-------------------5-3-h5-----5
E :---------5---------------3-4-5----------3-2-1--0-0--------------------
s s
G :------------------------------|
D :------------------------------|
A :-3-h5-----5-3-h5--------5-3-h5|
E :-----------------0-1-3--------|
Cybillie this tab is for you



Get this song at amazon.com      Ebay     Ringtones Ringtones  


Learn to play: Songwriting, Piano, Harmonica, Guitar
Also available at Muzikum: Incubus - Psychopsilocybin lyrics

Related Incubus Bass Tabs

Speak Free Intro bass
Take Me To Your Leader bass
Warning (standard Tuning) bass
Redefine (4 String) bass
Summer Romance (anti-gravity) bass
11 Am Tab bass
Medium bass
Priceless (complete) bass
Anna Molly bass
Wish You Were Here bass
Magic Medicine bass
Speak Free bass
Battlestar Scralatchtica bass
Mexico bass
Make Yourself bass
Wish You Where Here bass
Nebula bass
Summer Romance bass
Under My Umbrella bass
Blood On The Ground bass


Guitar Tabs









All tabs are property and copyright of their owners. All tabs provided for educational purposes only. Privacy Policy, DMCA