Incubus

Priceless (complete) Bass Tabs



More from Incubus

Incubus Tabs
Incubus Chords
Incubus Bass
Incubus Lyrics




Drums.....Yell....then bass around seventeen seconds in....


G :----------------|-----------------|----------------|-----------------|
D :----------------|-----------------|----------------|-----------------|
A :0---------0-----|-----------0-----|0---------0-----|-----------0-----|
E :--0-8-------0-0-|8-----3-/4---3-0-|--0-8-------0-0-|8-----3-/4---3-0-|

G :----------------|-----------------|----------------|-----------------|
D :----------------|-----------------|----------------|-----------------|
A :0---------0-----|-----------0-----|0---------0-----|-----------0-----|
E :--0-8-------0-0-|8-----3-/4---3-0-|--0-8-------0-0-|8-----3-/4---3-0-|

G :----------------|-----------------|----------------|-----------------|
D :----------------|-----------------|----------------|-----------------|
A :0---------0-----|-----------0-----|0---------0-----|-----------0-----|
E :--0-8-------0-0-|8-----3-/4---3-0-|--0-8-------0-0-|8-----3-/4---3-0-|

G :----------------|-----------------|----------------|-----------------|
D :----------------|-----------------|----------------|-----------------|
A :0---------0-----|-----------0-----|0---------0-----|-----------0-----|
E :--0-8-------0-0-|8-----3-/4---3-0-|--0-8-------0-0-|8-----3-/4---3-0-|

G :----------------|-----------------|----------------|-----------------|
D :----------------|-----------------|----------------|-----------------|
A :0---------0-----|-----------0-----|0---------0-----|-----------0-----|
E :--0-8-------0-0-|8-----3-/4---3-0-|--0-8-------0-0-|8-----3-/4---3-0-|

G :----------------|-----------------|----------------|-----------------|
D :----------------|-----------------|----------------|-----------------|
A :0---------0-----|-----------0-----|0---------0-----|-----------0-----|
E :--0-8-------0-0-|8-----3-/4---3-0-|--0-8-------0-0-|8-----3-/4---3-0-|

G :--------------------|--------------------|--------------------|
D :--------------------|--------------------|7-7-7-7---7-7---7---|
A :5-5-5-5---5-5---5---|5-5-5-5---5-5---5---|--------------------|
E :--------------------|--------------------|--------------------|

G :--------------------|--------------------|--------------------|
D :3-3-3-3---3-3---3---|--------------------|--------------------|
A :--------------------|5-5-5-5---5-5---5---|--------------------|
E :--------------------|--------------------|5-5-5-5---5-5---5---|

G :--------------------|----------------------------|----------------|
D :7-7-7-7---7-7---7---|/10-10-10-10---10-10---10---|----------------|
A :--------------------|----------------------------|0---------0-----|
E :--------------------|----------------------------|--0-8-------0-0-|

G :-----------------|----------------|-----------------|----------------|
D :-----------------|----------------|-----------------|----------------|
A :-----------0-----|0---------0-----|-----------0-----|0---------0-----|
E :8-----3-/4---3-0-|--0-8-------0-0-|8-----3-/4---3-0-|--0-8-------0-0-|

G :-----------------|----------------|-----------------|----------------|
D :-----------------|----------------|-----------------|----------------|
A :-----------0-----|0---------0-----|-----------0-----|0---------0-----|
E :8-----3-/4---3-0-|--0-8-------0-0-|8-----3-/4---3-0-|--0-8-------0-0-|

G :-----------------|----------------|-----------------|----------------|
D :-----------------|----------------|-----------------|----------------|
A :-----------0-----|0---------0-----|-----------0-----|0---------0-----|
E :8-----3-/4---3-0-|--0-8-------0-0-|8-----3-/4---3-0-|--0-8-------0-0-|

G :-----------------|----------------|-----------------|----------------|
D :-----------------|----------------|-----------------|----------------|
A :-----------0-----|0---------0-----|-----------0-----|0---------0-----|
E :8-----3-/4---3-0-|--0-8-------0-0-|8-----3-/4---3-0-|--0-8-------0-0-|

G :-----------------|----------------|-----------------|----------------|
D :-----------------|----------------|-----------------|----------------|
A :-----------0-----|0---------0-----|-----------0-----|0---------0-----|
E :8-----3-/4---3-0-|--0-8-------0-0-|8-----3-/4---3-0-|--0-8-------0-0-|

G :-----------------|----------------|-----------------|
D :-----------------|----------------|-----------------|
A :-----------0-----|0---------0-----|-----------0-----|
E :8-----3-/4---3-0-|--0-8-------0-0-|8-----3-/4---3-0-|

G :--------------------|--------------------|--------------------|
D :--------------------|--------------------|7-7-7-7---7-7---7---|
A :5-5-5-5---5-5---5---|5-5-5-5---5-5---5---|--------------------|
E :--------------------|--------------------|--------------------|

G :--------------------|--------------------|--------------------|
D :3-3-3-3---3-3---3---|--------------------|--------------------|
A :--------------------|5-5-5-5---5-5---5---|--------------------|
E :--------------------|--------------------|5-5-5-5---5-5---5---|

G :--------------------|----------------------------|----------------|
D :7-7-7-7---7-7---7---|/10-10-10-10---10-10---10---|----------------|
A :--------------------|----------------------------|0---------0-----|
E :--------------------|----------------------------|--0-8-------0-0-|

G :-----------------|----------------|-----------------|----------------|
D :-----------------|----------------|-----------------|----------------|
A :-----------0-----|0---------0-----|-----------0-----|0---------0-----|
E :8-----3-/4---3-0-|--0-8-------0-0-|8-----3-/4---3-0-|--0-8-------0-0-|

G :-----------------|----------------|-----------------|----------------|
D :-----------------|----------------|-----------------|----------------|
A :-----------0-----|0---------0-----|-----------0-----|0---------0-----|
E :8-----3-/4---3-0-|--0-8-------0-0-|8-----3-/4---3-0-|--0-8-------0-0-|

G :-----------------|----------------|-----------------|----------------|
D :-----------------|----------------|-----------------|----------------|
A :-----------0-----|0---------0-----|-----------0-----|0---------0-----|
E :8-----3-/4---3-0-|--0-8-------0-0-|8-----3-/4---3-0-|--0-8-------0-0-|

G :-----------------|----------------|-----------------|
D :-----------------|----------------|-----------------|
A :-----------0-----|0---------0-----|-----------0-----|
E :8-----3-/4---3-0-|--0-8-------0-0-|8-----3-/4---3-0-|

G :7-7-7-7-7-*---------|7-7-7-7-7-*---------|7-7-7-7-7-*---------|
D :--------------------|--------------------|--------------------|
A :*-------------------|--------------------|--------------------|
E :*-------------------|--------------------|--------------------|

G :7-7-7-7-7-*---------|7-7-7-7-7-*---------|7-7-7-7-7-*---------|
D :--------------------|--------------------|--------------------|
A :--------------------|--------------------|--------------------|
E :--------------------|--------------------|--------------------|

G :7-7-7-7-7-*---------|7-7-7-7-7-*---------|7-7-7-7-7-*---------|
D :--------------------|--------------------|--------------------|
A :--------------------|--------------------|--------------------|
E :--------------------|--------------------|--------------------|

G :7-7-7-7-7-*---------|7-7-7-7-7-*---------|7-7-7-7-7-*------------|
D :--------------------|--------------------|-----------------------|
A :--------------------|--------------------|-----------------------|
E :--------------------|--------------------|----------------8\-\-\-|

G :-------------------|------------------|------------------|
D :-------------------|------------------|------------------|
A :-------------------|------------------|------------------|
E :\5--3-h5-*---------|5--3-h5-*---------|5--3-h5-*---------|

G :------------------|------------------|------------------|
D :------------------|------------------|------------------|
A :------------------|------------------|------------3-----|
E :5--3-h5-*---------|5--3-h5-*---------|5--3-h5-*---------|

G :------------------|------------------|------------------|
D :------------------|------------------|------------------|
A :------------------|--------------3---|------------------|
E :5--3-h5-*---------|5--3-h5-*---------|5--3-h5-*---0-3-0-|

G :------------------|------------------|------------------|
D :------------------|------------------|------------------|
A :--------3---------|------------------|--------3---------|
E :5--3-h5*----0-3-0-|5--3-h5*0---0-3-0-|5--3-h5*----0-3-0-|

G :------------------|------------------|------------------|
D :------------------|------------------|------------------|
A :------------------|--------3---------|------------------|
E :5--3-h5*0---0-3-0-|5--3-h5*----0-3-0-|5--3-h5*0---0-0-0-|

G :------------------|------------------|------------------|
D :------------------|------------------|------------------|
A :--------3---------|--------3---------|--------3---------|
E :5--3-h5*----0-3-0-|5--3-h5*----0-3-0-|5--3-h5*----0-3-0-|

G :------------------|------------------|------------------|
D :------------------|------------------|------------------|
A :--------3---------|--------3---------|--------3---------|
E :5--3-h5*----0-3-0-|5--3-h5*----0-3-0-|5--3-h5*----0-3-0-|

G :------------------|-------------------|----------------|
D :------------------|--------/7---5---2-|----------------|
A :--------6---------|-------------------|--5---3---------|
E :5--3-h5*----0-3-0-|5--3-h5*-----------|----------0-3-0-|

G :----------------|----------------|----------------|----------------|
D :----------------|----------------|2-4-4-2-2-------|----------------|
A :0-0-0-3-3-0-3---|----------------|------------0---|--0-0---0---0-0-|
E :----------------|--3-3---3---3-3-|----------------|----------------|

G :----------------|----------------|----------------|----------------|
D :----------------|----------------|2-4-4-2-2---4-2-|4-2-4---4-2-----|
A :0-0-0-3-3-0-3---|----------------|----------------|------------4-2-|
E :----------------|--3-3---3---3-3-|----------------|----------------|

G :----------------|----------------|----------------|----------------|
D :----------------|----------------|2-4-4-2-2-------|----------------|
A :0-0-0-3-3-0-3---|----------------|------------0---|--0-0---0---0-0-|
E :----------------|--3-3---3---3-3-|----------------|----------------|

G :----------------|----------------|----------------|
D :----------------|----------------|2-4-4-2-2---4---|
A :0-0-0-3-3-0-3---|----------------|----------------|
E :----------------|--3-3---3---3-3-|----------------|

G :------------------------------|------------------------|
D :--(4)-(4)-(4)-(4)-(4)-(4)-(4)-|(4)-(4)-(4)-(4)-4-4-4-4-|
A :------------------------------|------------------------|
E :------------------------------|------------------------|

G :----------------|----------------|----------------|----------------|
D :*---------------|----------------|----------------|----------------|
A :----------------|----------------|----------------|----------------|
E :----------------|----------------|----------------|----------------|

G :----------------|----------------|----------------|----------------|
D :----------------|----------------|----------------|----------------|
A :----------------|----------------|----------------|----------------|
E :----------------|----------------|----------------|----------------|

G :----------------|----------------|----------------|----------------|
D :----------------|----------------|----------------|----------------|
A :----------------|----------------|----------------|----------------|
E :----------------|----------------|----------------|----------------|

G :----------------|-----------------|----------------|-----------------|
D :----------------|-----------------|----------------|-----------------|
A :0---------0-----|-----------0-----|0---------0-----|-----------0-----|
E :--0-8-------0-0-|8-----3-/4---3-0-|--0-8-------0-0-|8-----3-/4---3-0-|

G :----------------|-----------------|----------------|-----------------|
D :----------------|-----------------|----------------|-----------------|
A :0---------0-----|-----------0-----|0---------0-----|-----------0-----|
E :--0-8-------0-0-|8-----3-/4---3-0-|--0-8-------0-0-|8-----3-/4---3-0-|

G :----------------|-----------------|----------------|-----------------|
D :----------------|-----------------|----------------|-----------------|
A :0---------0-----|-----------0-----|0---------0-----|-----------0-----|
E :--0-8---0---0-0-|8-----3-/4---3-0-|--0-8---0---0-0-|8-----3-/4---3-0-|

G :----------------|-----------------|----------------|-----------------|
D :----------------|-----------------|----------------|-----------------|
A :0---------0-----|-----------0-----|0---------0-----|-----------0-----|
E :--0-8---0---0-0-|8-----3-/4---3-0-|--0-8---0---0-0-|8-----3-/4---3-0-|

G :----------------|-----------------|----------------|
D :----------------|-----------------|----------------|
A :0---------0-----|-----------0-----|----------------|
E :--0-8---0---0-0-|8-----3-/4---3-0-|*---------------|



Get this song at amazon.com      Ebay     Ringtones Ringtones  


Learn to play: Songwriting, Piano, Harmonica, Guitar
More Incubus lyrics available at Muzikum

Related Incubus Bass Tabs

Echo bass
Drive bass
Priceless (complete) bass
New Skin 4 Strng bass
Here In My Room bass
Wish You Where Here bass
The Answer bass
Redefine bass
Make A Move bass
New Skin bass
I Miss You bass
Megelomaniac bass
The Warmth bass
Nice To Know You bass
11 A. M. bass
Sink Beneath The Line bass
Follow ( First Movement Of The Oddyssey) bass
A Crow Left Of The Murder bass
Familiar bass
The Warmth (4 String) bass


Guitar Tabs









All tabs are property and copyright of their owners. All tabs provided for educational purposes only. Privacy Policy, DMCA