Incubus

Pendulous Threads Tabs



More from Incubus

Incubus Tabs
Incubus Chords
Incubus Bass
Incubus Lyrics



This is a pretty complex song, especially the solo, which took me a while to tab out,

i'm still not sure if it's 100%. Do what you want with the optional notes. The end is

in a different key than the rest of the song I think, so the chorus notes change twice.



Key:

h = hammer on

p = pulloff

/ = slide

b = bend

()= optional

t = tremolo pick



(Intro) play24X (Intro/Chorus) Play 2X with

Figure 1 - use some flanger here Figure 2 Fig 3a and 3b

e-------14----------14-14- e-3--3--3--3--| once each.

B---12------12--12-------- B-5--5--5--5--|

G-11--11--11--11--11------ G-4--4--4--4--| *use light distortion

D------------------------- D(0)(0)(0)(0)-|

A------------------------- A-------------|

E------------------------- E-------------|

*this riff goes until 1:08

into the song



(Chorus Ends)

Play Figure 2 once, Then 3a once. Play Fig 2 again, then 3b.

Figure 3a Figure 3b

e-------------------------------- ---------------------------------|

B-------------------------------- ---------------------------------|

G---7-7--7-7-7-7---3-3-3-0-0-0-0- ---7-7--7-11/7-7----3-33-0-0-0-0-|Play

D-00-0-00-0-0-0--00-0-0---0-0-0-- -00-0-00-0------0-00-0--0-0-0-0--|each 1X

A-------------------------------- ---------------------------------|

E-------------------------------- ---------------------------------|



Play rapidly at (Verse)

end of verse: This leads into: Figure 4!

e-9--9--9--9-- -9--x-9--x-9--x-9--9--9--9--9--9--| *play with light

B-10-10-10-10- -10-x-10-x-10-x-10-10-10-10-10-10-| distortion

G-9--9--9--9-- -9--x-9--x-9--x-9--9--9--9--9--9--|

D------------- ----------------------------------|

A------------- ----------------------------------|

E------------- ----------------------------------|



Figure 4 continued...

e-7-x-7-x-7-x-7-7-7-7-7-7- -9--x-9--x-9--x-9--9--9--9--9--9--|

B-8-x-8-x-8-x-8-8-8-8-8-8- -10-x-10-x-10-x-10-10-10-10-10-10-|

G-7-x-7-x-7-x-7-7-7-7-7-7- -9--x-9--x-9--x-9--9--9--9--9--9--|

D------------------------- ----------------------------------|

A------------------------- ----------------------------------|

E------------------------- ----------------------------------|



Figure 4 (Verse) still...

e-7-x-7-x-7-x-7-7-7-7-7-7- -8--x-8--x-8--x-8--8--8--8--8--8--|

B-8-x-8-x-8-x-8-8-8-8-8-8- -10-x-10-x-10-x-10-10-10-10-10-10-|

G-7-x-7-x-7-x-7-7-7-7-7-7- -9--x-9--x-9--x-9--9--9--9--9--9--|

D------------------------- ----------------------------------|

A------------------------- ----------------------------------|

E------------------------- ----------------------------------|



Figure 4....

e-7-x-7-x-7-x-7-7-7-7-7-7- -9--x-9--x-9--x-9--9--9--9--9--9--|

B-8-x-8-x-8-x-8-8-8-8-8-8- -10-x-10-x-10-x-10-10-10-10-10-10-|

G-8-x-8-x-8-x-8-8-8-8-8-8- -9--x-9--x-9--x-9--9--9--9--9--9--|

D------------------------- ----------------------------------|

A------------------------- ----------------------------------|

E------------------------- ----------------------------------|



(Verse End)

Figure 5

e----------------------|

B----------------------|

G----------------------|this is used coming out

D-------4----------4-4-|of the solo as well...

A-0-2-0---0-2-0-2-0----|

E----------------------|



(Solo)

Figure 6

tremolo first note.

e----------------------------------------------------|

B-----------------------17p14-18-17p14-17-18p17p14---|

G-14t-17p14-18-17p15-17------------------------------|



Solo...

e-------------------------------17-15----------20p15---------------|

B-17-15-17p15-17p15-17p15-17p15-------17p15-17------17p15-16b17-14-|

G------------------------------------------------------------------|



Solo...

e--------------------------------------------------------------------|

B-12--------------------------------12h14h15---12h14h16---12h14h15---|

G---14-12h14h15-14p12-14p12-14/15p12--------12---------12---------12-|



Solo...tremolos below

e---------------------------------------------------12-12/13-----------|

B-15t-17/19--15t-17---15-17-17-17-------15-17-17-17-14-14--------------|

G------------------14-------------14-14-------------14-14--------------|



Solo...

e----------------------------------------------------|

B-15-17-17-17------15-17-17-17--17-17-17-17----------|

G------------14-14-------------------------14-14-14--|





Solo...

e--------------------------------------------------|

B-19p17-15-19p17-15------15-19-19-19-19-19-19------|

G------------------17-17---------------------17-17-|



Solo...

e--------------------------------------------------------------|

B--------------------------------------------------------------|

G-17-17-17-19-19-19-13-13-13-12-12-12-13-13-13-15-15-15-13-16--|let ring



Solo...

e-18-18-15--18-18-15--18-15-18-15------------------------------------------|

B--------------------------------17-17-17-15-15-15-17-15-15-17-15-15-15-15-|

G--------------------------------------------------------------------------|



Solo...

e--------------------------------------------------------------------|

B-17-15-15--17-15-15--------------------------------15-18-18tremelo--|

G--------------------16-15-12--12-14-12-15-12-12-15-15-15-15tremelo--|



Back to this:

Figure 5

e----------------------|

B----------------------|

G----------------------|

D-------4----------4-4-|

A-0-2-0---0-2-0-2-0----|

E----------------------|



(Modified Chorus) (Different Chorus Ends)

Figure 7 Figure 8a

e-4-5--- -5-5--5-5--5-5--5-5- ----------------------------------|

B-6-7--- -7-7--7-7--7-7--7-7- ----------------------------------|

G-5-6--- -6-6--6-6--6-6--6-6- ---8-8--8-8-8-8/4--4-44-1-1-1-1-1-|

D-0-0--- -0-0--0-0--0-0--0-0- -00-0-00-0-0-0---00-0----0-0-0-0--|

A------- -------------------- ----------------------------------|

E------- -------------------- ----------------------------------|

!!Play these two chords the first time only



Figure 8b

e--------------------------------|

b--------------------------------|

G---8-8--8-8/12/8--4-441-1-1-1---|

D-00-0-00-0-0--0-00-0---0-0-0----|

A--------------------------------|

E--------------------------------|



(Yet another modified chorus) Then Back to:

Figure 9 - use with fig. 8a and 8b

e-4-4--4-4--4-4--4-4- e-------14-----------14-|

B-6-6--6-6--6-6--6-6- B---12-------12--12-----|

G-5-5--5-5--5-5--5-5- G-11--11---11--11--11---|

D-0-0--0-0--0-0--0-0- D-----------------------|

A-------------------- A-----------------------|

E-------------------- E-----------------------|



And Finally at very end of the outro

e-------14----------14--22--|

B---12-------12--12---------|

G-11--12---11--11-----------|

D---------------------------|

A---------------------------|

E---------------------------|Added by tabs-database.com and our distinguished partners
Get this song at amazon.com      Ebay     Ringtones Ringtones  


Learn to play: Songwriting, Piano, Harmonica, Guitar
More Incubus lyrics available at Muzikum

Related Incubus Tabs

Pardon Me Studio tabs
Certain Shade Of Green tabs
Acqueous Transmission tabs
Battlestar Scralatchtica tabs
Drive7 tabs
Hilikus Bass tabs
Zee Deveel tabs
Talk Show On Mute tabs
In The Company Of Wolves tabs
Answer tabs
11am tabs
New Skin Acoustic tabs
Wish You Were Here Live tabs
Pardon Me Crd tabs
Nebula tabs
Drive3 Crd tabs
Golden tabs
Echo tabs
Anti Gravity Song tabs
Stellar tabs


Guitar Tabs









All tabs are property and copyright of their owners. All tabs provided for educational purposes only. Privacy Policy, DMCA