Incubus

Pardon Me (4 String) Bass Tabs



More from Incubus

Incubus Tabs
Incubus Chords
Incubus Bass
Incubus Lyrics



INCUBUS -Pardon Me (4-String)
Tuning –Standard

Intro
G|--------------|----------------|---------------|
D|-----Rest-----|*---------------|--------------*|
A|------1x------|*-4-------------|-4------------*|
E|--------------|---------5------|-------5-/-12--|

G|------------------------------|-------------------------------------|
D|------------------------------|-------------------------------------|
A|-4----------44444444----------|-44444444--------44444444------------|
E|----5-55-555--------5555-0000-|---------55555555--------5555-0000--|

G|--------------------------------|
D|--------------------------------|
A|-44444444--------44444444777----|
E|---------55555555-----------75--|

Verse
G|--------------------------------------------|
D|--------------------------------------------|
A|--------------------------------------------|
E|-44----00----11-1111-11-116/11-1111-11-11--|

G|--------------------------------------------|
D|--------------------------------------------|
A|--------------------------------------------|
E|-99--77-22---10-1010-10-103/10-1010-10-10--|

G|--------------------------------------|-----------------------------|
D|--------------------------------------|-----------------------------|
A|-44-----------------------------11h12-|-----------------------------|
E|-----44---12-121212126/12-1212-------|-77---11-----55555555555555--|

Chorus
G|--------------------------------------|
D|--------------------------------------|
A|--------------------------------------|
E|--9-999-97-777-75-555-55-0h200-0h200--|

G|-----------------------------------|
D|-----------------------------------|
A|-------------------------77776666--|
E|--9-999-97-777-75-555-55-----------|

1st Time Only
G|--------------------------------------|------------------|
D|--------------------------------------|------------------|
A|--------------------------------------|------------------|
E|--9-999-97-777-75-555-55-0h200-0h200--|-44---00---44---00|

Interlude
G|--------------|--------------|---------------|
D|--------------|-----Rest-----|---------------|
A|--------------|------1x------|-4-------------|
E|--------------|--------------|--------5------|

G|---------------|----------------------------|
D|---------------|----------------------------|
A|-4-------------|-44444444--------44444444---|
E|-------5-/-12--|---------55555555--------5--|

Outro
G|--------------------------------|--------------------------------|
D|--------------------------------|--------------------------------|
A|-44444444--------44444444-------|-44444444777-----44444444-------|
E|---------55555555--------55550--|------------7555---------55550--|

OK -Done

Taken from The BassMasta -- http://www.tabs-database.com



Get this song at amazon.com      Ebay     Ringtones Ringtones  


Learn to play: Songwriting, Piano, Harmonica, Guitar
Also available at Muzikum: Incubus - Pardon Me (4-string) lyrics

Related Incubus Bass Tabs

Science bass
Nice To Know You (4 String) bass
Dig bass
Pantomime bass
A Crow Left Of The Murder bass
Privilege bass
Clean bass
Megelomaniac bass
The Warmth bass
Leech bass
Talk Shows On Mute bass
Calgone bass
Southern Girl bass
Wish You Were Here bass
Summer Romance (anti-gravity Love Song) bass
I Miss You bass
Sink Beneath The Line bass
Speak Free Intro bass
Make Yourself bass
Certain Shade Of Green bass


Guitar Tabs









All tabs are property and copyright of their owners. All tabs provided for educational purposes only. Privacy Policy, DMCA