Incubus

Nowhere Fast Tabs



More from Incubus

Incubus Tabs
Incubus Chords
Incubus Bass
Incubus Lyrics

I was looking for Incubus tabs and the ones I found are crap. So I did
it myself and I know its right.

Droped D tuning
Effects: Phasor, Delay, Distortion

Intro:
(with phasor)
e:-----------------------------
B:-----------------------------
G:--0-0------------------------
D:------4-4--------------------
A:----------0-0-----3333/8888--
D:--------------0-0-3333/8888--

Chorus:
(with distortion)
e:--------------------- e:---------------------
B:--7~----------------- B:--7~-----------------
G:--6~----------------- G:--6~------5555-------
D:--0-00-00-3333/8888-- x3 then D:--0-00-00-5555-3333--
A:--0-00-00-3333/8888-- A:--0-00-00-3333-3333--
D:--0-00-00-3333/8888-- D:--0-00-00------3333--

Verse:
(with phasor and delay)
makes sure to not let the notes ring except for when it is shown to let
them ring, palm mute them right after you strike it
e:------14------------14------------------
B:----------------------------------------
G:--11------14---------11------14~15~16~--
D:--11------14--16h17--11------14~15~16~--
A:----------------------------------------
D:----------------------------------------

Bridge:
(with phasor and delay)
fade the notes in with your volume nob (this sounds really good with
the delay)
e:---------------------------------------------
B:---------------------------------------------
G:---------------------------------------------
D:--5<<<<<<<8<<<<<<<5<<<<<<<10<<<<<<<10-10-10--
A:--5<<<<<<<8<<<<<<<5<<<<<<<10<<<<<<<10-10-10--
D:--5<<<<<<<8<<<<<<<5<<<<<<<10<<<<<<<10-10-10--
*break into distortion here

Solo:
(with phasor)
e:--------------------9-----7----------------------------------------
B:--------------7-------7-----7------------5----------------8-7------
G:----------------6-------7-----7------------7------------------7----
D:------5---5/7-----4------------------5-------7--------8---------7--
A:----5---5--------------------------5---5-------5----8---8----------
D:--5------------------------------5----------------8----------------

then
e:----------------------------------------------
B:----------------------------------------------
G:--9/11-11-14-14-11-9-7-6/7-7-6/7-7-3-3--------
D:--9/11-11-14-14-11-9-7-6/7-7-6/7-7-3-3-0-0-0--
A:--7/9--9--12-12-9--7-5-4/5-5-4/5-5-1-1-0-0-0--
D:---------------------------------------0-0-0--

then
e:--------------------------------------------
B:--------------------------------------------
G:--9/11-11-14-14-11-9-7-3-3-3-3-3-3-3-3-3-3--
D:--9/11-11-14-14-11-9-7-3-3-3-3-3-3-3-3-3-3--
A:--7/9--9--12-12-9--7-5-1-1-1-1-1-1-1-1-1-1--
D:--------------------------------------------
Get this song at amazon.com      Ebay     Ringtones Ringtones  


Learn to play: Songwriting, Piano, Harmonica, Guitar
Also available at Muzikum: Incubus - Nowhere fast lyrics

Related Incubus Tabs

Pardon Me Studio tabs
Golden tabs
The Warmth tabs
Talk Shows On Mute tabs
Drive Live tabs
Rogues Bass tabs
Mexico (Acoustic) tabs
Idiot Box tabs
Everything Is Dead (4th Movement) tabs
Smokin The Herb Again tabs
Love Hurts tabs
Nice To Know You Live tabs
Pendolous Threads Bass tabs
When It Comes tabs
Anna Molly Bass tabs
11am2 tabs
Admiration tabs
Calogne tabs
11 Am tabs
Like A Virgin Cover tabs


Guitar Tabs









All tabs are property and copyright of their owners. All tabs provided for educational purposes only. Privacy Policy, DMCA