Incubus

Nice To Know You Bass Tabs



More from Incubus

Incubus Tabs
Incubus Chords
Incubus Bass
Incubus Lyrics

Incubus - Nice to Know You

Bass Enters at 0:13
   
   Intro Riff
| |------------------------| |--------------------------------|
|3|------------------------|4|--------------------------------|
|4|7-9-9------------7-9-9--|4|7-9-9---------------------------|
| |------1010--1010--------| |------1010--10s----------------|x3

| |------------------------| |------------------------------------|
|3|------------------------|5|------------------------------------|
|4|7-9-9-------------7-9-9-|4|7-9-9-------------------------------|
| |--------1010--1010------| |------1010--10s---------{REST}-----|

   Chorus Riff					
| |------------------------| |--------------------------------|
|3|------------------------|4|--------------------------------|
|4|------5-5---5-5---------|4|------5-5---5-5-----------------|
| |0-2-2-----------0-2-2---| |0-2-2-----------0-2-2-2-2-2s5-5-|x4

   Verse Riff
| |------------------------| |--------------------------------|
|3|------------------------|4|--------------------------------|
|4|7-9-9------------7-9-9--|4|7-9-9---------------------------|
| |------1010--1010--------| |------1010--10s----------------|x4

   Pre-chorus Riff
| |--------------------------------|--------------------------------|
|4|--------------------------------|--------------------------------|
|4|------------------------5-7-----|--------------------------------|
| |5-------5-------5---5s7-----5---|--5-5---5-------5-------5---0-2-|

  |--------------------------------|--------------------------------|
  |--------------------------------|--------------------------------|
  |--------------------------------|----------------------5-5-------|
  |3-------3-------3-------3---2---|----2---2-------2---0-----0-0-0-|

  |--------------------------------|--------------------------------|
  |----------------------------7---|--7-7---7-------7-------7s------|
  |------------------------5-7-----|--------------------------------|
  |5-------5-------5---5s7---------|----------------------------0-2-|

  |--------------------------------|--------------------------------|
  |--------------------------------|--------------------------------|
  |--------------------------------|--------------------------------|
  |3-------3-------3-------3---2---|----2---2---2---2-2-2-2-2-2-2-2-|

   Chorus Riff
   Verse Riff x4
   Pre-Chorus Riff
   Chorus Riff x4 (substitute fill-1 for last bar on last repetition)

   Fill-1
| |--------------------------------|
|4|----------------------------0---|
|4|------5-5---5-----------0-3---0-|
| |0-2-2---------0-0-2-2-2---------|

   Verse Riff x4
   Pre-Chorus Riff
   Chorus Riff x3 
   Chorus Riff w/fill-1

   Bridge
| |--------------------------------|--------------------------------|
|4|--------------------------------|--------------------------------|
|4|5-----5---x-3-----3-3-----------|3-----3---x-3-----3-3-----3---x-|
| |--------------------------------|--------------------------------|

  |--------------------------------|--------------------------------|
  |--------------------------------|------------7-----7-7---7-7-7-7-|
  |5-----5---x-3-----3-3-----------|3-----3---x---------------------|
  |--------------------------------|--------------------------------|x3

  Pre-Chorus Riff
  Chorus Riff x4 (substitute fill-2 for last bar on last repetition)

| |--------------------------------|--------------------------------|
|4|--------------------------------|--------------------------------|
|4|------5-5---5-5---------2-2-2-0-|0-0-----------------------------|
| |0-2-2-----------0-2-2-0---------|--------------------------------|
Get this song at amazon.com      Ebay     Ringtones Ringtones  


Learn to play: Songwriting, Piano, Harmonica, Guitar
Also available at Muzikum: Incubus - Nice to know you lyrics

Related Incubus Bass Tabs

Incubus-redefine bass
Under My Umbrella bass
Magic Medicine bass
Trouble In 421 bass
You Will Be A Hot Dancer bass
The Warmth (4 String) bass
Echo bass
Nebula bass
Make A Move bass
Version bass
Megalomaniac bass
Leech bass
Stellar bass
A Crow Left Of The Murder bass
Steller Make Yourself bass
Vitamin bass
Favorite Things bass
Psychopsilocybin bass
Blood On The Ground bass
Wish You Where Here bass


Guitar Tabs









All tabs are property and copyright of their owners. All tabs provided for educational purposes only. Privacy Policy, DMCA