Incubus

Nice To Know You (4 String) Bass Tabs



More from Incubus

Incubus Tabs
Incubus Chords
Incubus Bass
Incubus Lyrics



Incubus -Nice To Know You (4-String)

Standard Tunning

Intro x4
G-r-----------------------------------------------------------------
D-e-----------------------------------------------------------------
A-s-----------------------------------------------------------------
E-t-------12-14-14-10--10--10-10-12-14-14----12-14-14-10--10--10~/--

(0:37)
G-----------------------------------------------------------
D-----------------------------------------------------------
A-------5--5--5-----------------5--5--5---------------------
E-0-2-2---------0-0-0-2---0-2-2---------0--0-2-2-2-2-25-5--

Verse x3
G-r-----------------------------------------------------------------
D-e-----------------------------------------------------------------
A-s-----------------------------------------------------------------
E-t-------12-14-14-10--10--10-10-12-14-14----12-14-14-10--10--10~/--

G-------------------------------------------------------------
D-------------------------------------------------------------
A-------------------------------------------------------------
D-12-14-14-10--10---10-10-12-14-14----12-14-14-10--10---10~/--


Pre-Chorus
G------------------------------------------------------------
D------------------------------------------------------------
A------------------------5-7---------------------------------
D-5----5--5------5---5-7-----5~-5-5--5------5----5--5---0-2--

G-------------------------------------------------------------
D-------------------------------------------------------------
A--------------------------------------------------5-5--------
E-3----3--3------3---3--3/2-2~-2--2--2--2----2---0-----0-0-0--

G------------------------------------------------------------------
D------------------------------------------------------------------
A------------------------5-7-12~-12--12--12---12--12-----12/-------
E-5----5--5------5---5-7--------------------------------------0-2--

G------------------------------------------------------------
D------------------------------------------------------------
A------------------------------------------------------------
E-3----3--3------3----3--3--2~-2--2--2--2---2-2-2-2-2-2-2-2--

Chorus
G-----------------------------------------------------------
D-----------------------------------------------------------
A-------5--5--5-----------------5--5--5---------------------
E-0-2-2---------0-0-0-2---0-2-2---------0--0-2-2-2-2-25-5--

G------------------
D------------------
A---------0-3-5-0--
E-0-2-2-2----------

Bridge (3:15)
G-------------------------------------------
D-------------------------------------------
A-5--5---3~-3--3--3----3---3---3~-3--3---3--
E-------------------------------------------

G------------------------------------------------------
D--------------------------------------7~-7--7~-7-7-7--
A-5---5----3~-3--3---3------3----3---3-----------------
E------------------------------------------------------

G-------------------------------------------
D-------------------------------------------
A-5--5---3~-3--3--3----3---3---3~-3--3---3--
E-------------------------------------------

G------------------------------------------------------
D--------------------------------------7~-7--7~-7-7-7--
A-5---5----3~-3--3---3------3----3---3-----------------
E------------------------------------------------------

G-------------------------------------------
D-------------------------------------------
A-5--5---3~-3--3--3----3---3---3~-3--3---3--
E-------------------------------------------

G------------------------------------------------------
D--------------------------------------7~-7--7~-7-7-7--
A-5---5----3~-3--3---3------3----3---3-----------------
E------------------------------------------------------

(4:34)
G----------------------------------------------------------------
D----------------------------------------------------------------
A-------5--5--5-----------------5--5--5------------2-2-2-0--0-0--
E-0-2-2---------0-0-0-2---0-2-2---------0--0-2-2-0---------------

Taken from The BassMasta -- http://www.tabs-database.com



Get this song at amazon.com      Ebay     Ringtones Ringtones  


Learn to play: Songwriting, Piano, Harmonica, Guitar
More Incubus lyrics available at Muzikum

Related Incubus Bass Tabs

Nebula bass
Glass-6 String bass
Priceless (complete) bass
Glass (complete Five String) bass
A Certain Shades Of Green [live] bass
Clean bass
A Certain Shade Of Green (acoustic) bass
Anti-gravity bass
Dig bass
Drive bass
Glass bass
Made For A Tv Movie bass
A Certain Shade Of Green bass
Agoraphobia bass
New Skin 4 String bass
Under My Umbrella bass
Consequence bass
Circles bass
Admiration bass
Take Me To Your Leader bass


Guitar Tabs









All tabs are property and copyright of their owners. All tabs provided for educational purposes only. Privacy Policy, DMCA