Incubus

New Skins Tabs



More from Incubus

Incubus Tabs
Incubus Chords
Incubus Bass
Incubus Lyrics

New Skin                                     


Track 1

E||--------------------|--------------------|--------------------|
B||--------------------|--------------------|--------------------|
G||--4-4---------------|----4-4-------------|--4-4---------------|
D||--4-4---------------|----4-4-------------|--4-4---------------|
A||--2-2---------------|----2-2-------------|--2-2---------------|
E||--2-2---------------|----2-2-------------|--2-2---------------|



--------------------|-----------------------------|
--------------------|-----------------------------|
----4-4-------------|--4-4-x-4-x-4-x-4-x----------|
----4-4-------------|--4-4-x-4-x-4-x-4-x-3-3------|
----2-2-------------|--2-2-x-2-x-2-x-2-x-3-3------|
----2-2-------------|--------------------1-1------|



--------------------------------|-----------------------------|
--------------------x-----------|-----------------------------|
--4-4-x-4-x-4-x-4-x-x-7--x-x-7--|--4-4-x-4-x-4-x-4-x----------|
--4-4-x-4-x-4-x-4-x-x-7--x-x-7--|--4-4-x-4-x-4-x-4-x-3-3------|
--2-2-x-2-x-2-x-2-x-x-5--x-x-5--|--2-2-x-2-x-2-x-2-x-3-3------|
--------------------------------|--------------------1-1------|



-----------------------------4--|-----------------------------|
--------------------x--------3--|-----------------------------|
--4-4-x-4-x-4-x-4-x-x-7--4-4-4--|--4-4-x-4-x-4---4-x----------|
--4-4-x-4-x-4-x-4-x---7--4-4----|--4-4-x-4-x-4---4-x-3-3------|
--2-2-x-2-x-2-x-2-x---5--2-2----|--2-2-x-2-x-2-x-2-x-3-3------|
--------------------------------|--------------------1-1------|



-----------------------------4--|-----------------------------|
-----------------------------3--|-----------------------------|
--4-4-x-4-x-4-x-4-x-x-7--x-x-4--|--4-4-x-4-x-4-x-4-x----------|
--4-4-x-4-x-4-x-4-x-x-7--x-x----|--4-4-x-4-x-4-x-4-x-3-3------|
--2-2-x-2-x-2-x-2-x-x-5--x-x----|--2-2-x-2-x-2-x-2-x-3-3------|
--------------------------------|--------------------1-1------|



----------------4--4-4-4-4-4-4-4-|
----------------3--3-3-3-3-3-3-3-|
--4-4-x-4-x-4-x-4--4-4-4-4-4-4-4-|
--4-4-x-4-x-4-x------------------|
--2-2-x-2-x-2-x------------------|
---------------------------------|



-----------------------------------------------|
-------------12--------------13----14----13-14-|
--11-11-x-11----11-x-11-x-11----11----11-------|
-----------------------------------------------|
-----------------------------------------------|
-----------------------------------------------|



-----------------------------------14----------|
-------------12--------------13----------13-14-|
--11-11-x-11----11-x-11-x-11----11----11-------|
-----------------------------------------------|
-----------------------------------------------|
-----------------------------------------------|



-----------------------------------14----------|
-------------12--------------13----------13-14-|
--11-11-x-11----11-x-11-x-11----11----11-------|
-----------------------------------------------|
-----------------------------------------------|
-----------------------------------------------|



-----------------------------------|
-------------12--------------------|
--11-11-x-11----11-x-11------------|
------------------------5---5---5--|
------------------------5---5---5--|
------------------------3---3---3--|



-----------------------------------------------|
-------------12--------------13----14----13-14-|
--11-11-x-11----11-x-11-x-11----11----11-------|
-----------------------------------------------|
-----------------------------------------------|
-----------------------------------------------|



-----------------------------------14----------|
-------------12--------------13----------13-14-|
--11-11-x-11----11-x-11-x-11----11----11-------|
-----------------------------------------------|
-----------------------------------------------|
-----------------------------------------------|



-----------------------------------14----------|
-------------12--------------13----------13-14-|
--11-11-x-11----11-x-11-x-11----11----11-------|
-----------------------------------------------|
-----------------------------------------------|
-----------------------------------------------|



--14-------13-------11/12/13/14/15/16/17/---|----------------------------|
-----12-------12----11/12/13/14/15/16/17/---|----------------------------|
--------11-------11-10/11/12/13/14/15/16/---|--4-4-4-4-4-------5--5-5----|
--------------------------------------------|--4-4-4-4-4--4-4--5--5-5----|
--------------------------------------------|--2-2-2-2-2--4-4--3--3-3----|
--------------------------------------------|-------------2-2------------|



-----------------------------|----------------------------|
-----------------------------|----------------------------|
--4-4-4-4-4-------5--5-5-5---|--4-4-4-4-4-------5--5-5----|
--4-4-4-4-4--4-4--5--5-5-5---|--4-4-4-4-4--4-4--5--5-5----|
--2-2-2-2-2--4-4--3--3-3-3---|--2-2-2-2-2--4-4--3--3-3----|
-------------2-2-------------|-------------2-2------------|



----------------------------|-------------------------|
----------------------------|-------------------------|
--4-4-4-4-4-------5--5-5----|-----------9---9--9-9----|
--4-4-4-4-4--4-4--5--5-5----|--7---7-7--9---9--9-9----|
--2-2-2-2-2--4-4--3--3-3----|--7---7-7--7---7--7-7----|
-------------2-2------------|--5---5-5--7---7--7-7----|



--------------------------------|-------------------------|
--------------------------------|-------------------------|
--------------10---10--10-10----|-----------9---9--9-9----|
--10---10-10--10---10--10-10----|--7---7-7--9---9--9-9----|
--10---10-10--8----8---8--8-----|--7---7-7--7---7--7-7----|
--8----8--8---8----8---8--8-----|--5---5-5--7---7--7-7----|



--------------------------------|-------------------------|
--------------------------------|-------------------------|
--------------12---12--12-12----|-----------9---9--9-9----|
--10---10-10--12---12--12-12----|--7---7-7--9---9--9-9----|
--10---10-10--10---10--10-10----|--7---7-7--7---7--7-7----|
--8----8--8---10---10--10-10----|--5---5-5--7---7--7-7----|



--------------------------------|-------------------------|
--------------------------------|-------------------------|
--------------10---10--10-10----|-----------9---9--9-9----|
--10---10-10--10---10--10-10----|--7---7-7--9---9--9-9----|
--10---10-10--8----8---8--8-----|--7---7-7--7---7--7-7----|
--8----8--8---8----8---8--8-----|--5---5-5--7---7--7-7----|



--------------------------------------|-----------------------------|
--------------------------------------|-----------------------------|
--------------12-12-12-12-12-12-12/---|--4-4-x-4-x-4-x-4-x----------|
--10---10-10--12-12-12-12-12-12-12/---|--4-4-x-4-x-4-x-4-x-3-3------|
--10---10-10--10-10-10-10-10-10-10/---|--2-2-x-2-x-2-x-2-x-3-3------|
--8----8--8---------------------------|--------------------1-1------|



----------------4--4-4-x-4-x-4-4-|
----------------3--3-3-x-3-x-3-3-|
--4-4-x-4-x-4-x-4--4-4-x-4-x-4-4-|
--4-4-x-4-x-4-x------------------|
--2-2-x-2-x-2-x------------------|
---------------------------------|



-----------------------------------------------|
-------------12--------------13----14----13-14-|
--11-11-x-11----11-x-11-x-11----11----11-------|
-----------------------------------------------|
-----------------------------------------------|
-----------------------------------------------|



-----------------------------------14----------|
-------------12--------------13----------13-14-|
--11-11-x-11----11-x-11-x-11----11----11-------|
-----------------------------------------------|
-----------------------------------------------|
-----------------------------------------------|



-----------------------------------14----------|
-------------12--------------13----------13-14-|
--11-11-x-11----11-x-11-x-11----11----11-------|
-----------------------------------------------|
-----------------------------------------------|
-----------------------------------------------|



-----------------------------------|
-------------12--------------------|
--11-11-x-11----11-x-11------------|
------------------------5---5---5--|
------------------------5---5---5--|
------------------------3---3---3--|



-----------------------------------------------|
-------------12--------------13----14----13-14-|
--11-11-x-11----11-x-11-x-11----11----11-------|
-----------------------------------------------|
-----------------------------------------------|
-----------------------------------------------|



-----------------------------------14----------|
-------------12--------------13----------13-14-|
--11-11-x-11----11-x-11-x-11----11----11-------|
-----------------------------------------------|
-----------------------------------------------|
-----------------------------------------------|



-----------------------------------------------|
-------------12--------------13----14----13-14-|
--11-11-x-11----11-x-11-x-11----11----11-------|
-----------------------------------------------|
-----------------------------------------------|
-----------------------------------------------|



--12-13-14-15-16-17-18-19-20-21-22/23/24/---|----------------------------|
--12/13/14/15/16/17/18/19/20/21/22/23/24/---|----------------------------|
--12/13/14/15/16/17/18/19/20/21/22/23/24/---|--4-4-4-4-4-------5--5-5----|
--------------------------------------------|--4-4-4-4-4--4-4--5--5-5----|
--------------------------------------------|--2-2-2-2-2--4-4--3--3-3----|
--------------------------------------------|-------------2-2------------|



----------------------------|----------------------------|
----------------------------|----------------------------|
--4-4-4-4-4-------5--5-5----|--4-4-4-4-4-------5--5-5----|
--4-4-4-4-4--4-4--5--5-5----|--4-4-4-4-4--4-4--5--5-5----|
--2-2-2-2-2--4-4--3--3-3----|--2-2-2-2-2--4-4--3--3-3----|
-------------2-2------------|-------------2-2------------|



----------------------------|----------------------------|
----------------------------|----------------------------|
--4-4-4-4-4-------5--5-5----|--4-4-4-4-4-------5--5-5----|
--4-4-4-4-4--4-4--5--5-5----|--4-4-4-4-4--4-4--5--5-5----|
--2-2-2-2-2--4-4--3--3-3----|--2-2-2-2-2--4-4--3--3-3----|
-------------2-2------------|-------------2-2------------|



----------------------------|----------------------------|
----------------------------|----------------------------|
--4-4-4-4-4-------5--5-5----|--4-4-4-4-4-------5--5-5----|
--4-4-4-4-4--4-4--5--5-5----|--4-4-4-4-4--4-4--5--5-5----|
--2-2-2-2-2--4-4--3--3-3----|--2-2-2-2-2--4-4--3--3-3----|
-------------2-2------------|-------------2-2------------|



----------------------------|-------------------------|
----------------------------|-------------------------|
--4-4-4-4-4-------5--5-5----|-----------9---9--9-9----|
--4-4-4-4-4--4-4--5--5-5----|--7---7-7--9---9--9-9----|
--2-2-2-2-2--4-4--3--3-3----|--7---7-7--7---7--7-7----|
-------------2-2------------|--5---5-5--7---7--7-7----|



--------------------------------|-------------------------|
--------------------------------|-------------------------|
--------------10---10--10-10----|-----------9---9--9-9----|
--10---10-10--10---10--10-10----|--7---7-7--9---9--9-9----|
--10---10-10--8----8---8--8-----|--7---7-7--7---7--7-7----|
--8----8--8---8----8---8--8-----|--5---5-5--7---7--7-7----|



--------------------------------|-------------------------|
--------------------------------|-------------------------|
--------------12---12--12-12----|-----------9---9--9-9----|
--10---10-10--12---12--12-12----|--7---7-7--9---9--9-9----|
--10---10-10--10---10--10-10----|--7---7-7--7---7--7-7----|
--8----8--8---10---10--10-10----|--5---5-5--7---7--7-7----|



--------------------------------|-------------------------|
--------------------------------|-------------------------|
--------------10---10--10-10----|-----------9---9--9-9----|
--10---10-10--10---10--10-10----|--7---7-7--9---9--9-9----|
--10---10-10--8----8---8--8-----|--7---7-7--7---7--7-7----|
--8----8--8---8----8---8--8-----|--5---5-5--7---7--7-7----|



--------------------------------------|-------------------------|
--------------------------------------|--0---0-0--5---5--5-5----|
--------------12-12-12-12-12-12-12/---|--2---2-2--4---4--4-4----|
--10---10-10--12-12-12-12-12-12-12/---|--2---2-2--2---2--2-2----|
--10---10-10--10-10-10-10-10-10-10/---|--0---0-0--2---2--2-2----|
--8----8--8---------------------------|--0---0-0--0---0--0-0----|



-------------------------|-------------------------|
--5---5------------------|-------------------------|
--5---5-5----------------|-----------9---9--9-9----|
--5---5-5--5---5--5-5----|--7---7-7--9---9--9-9----|
--3---3-3--3---3--3-3----|--7---7-7--7---7--7-7----|
--3---3-3--1---1--1-1----|--5---5-5--7---7--7-7----|



--------------------------------|-------------------------|
--------------------------------|-------------------------|
--------------12---12--12-12----|-----------9---9--9-9----|
--10---10-10--12---12--12-12----|--7---7-7--9---9--9-9----|
--10---10-10--10---10--10-10----|--7---7-7--7---7--7-7----|
--8----8--8---10---10--10-10----|--5---5-5--7---7--7-7----|



--------------------------------|-------------------------|
--------------------------------|-------------------------|
--------------10---10--10-10----|-----------9---9--9-9----|
--10---10-10--10---10--10-10----|--7---7-7--9---9--9-9----|
--10---10-10--8----8---8--8-----|--7---7-7--7---7--7-7----|
--8----8--8---8----8---8--8-----|--5---5-5--7---7--7-7----|



--------------------------------------|--------------------|
--------------------------------------|--------------------|
--------------12-12-12-12-12-12-12/---|--4-4---------------|
--10---10-10--12-12-12-12-12-12-12/---|--4-4---------------|
--10---10-10--10-10-10-10-10-10-10/---|--2-2---------------|
--8----8--8---------------------------|--2-2---------------|



--------------------|--------------------|--------------------|
--------------------|--------------------|--------------------|
----4-4-------------|--4-4---------------|----4-4-------------|
----4-4-------------|--4-4---------------|----4-4-------------|
----2-2-------------|--2-2---------------|----2-2-------------|
----2-2-------------|--2-2---------------|----2-2-------------|



--------------------|--------------------|--------------------|
--------------------|--------------------|--15----------------|
--13----------------|--------------------|--------------------|
--------------------|----------13--------|--------------------|
--------------------|--------------------|--------------------|
--------------------|--------------------|--------------------|



--------------------|--------------------|----------------------|
--------------------|--------------------|----------------------|
--------------------|--------------------|--11--------13b-------|
--------------------|--13----------------|----------------------|
----------12--------|--------------------|----------------------|
--------------------|--------------------|----------------------|



--------------------|--------------------|-----------------------|
--------------------|--------------------|-----------------------|
--------------------|--------------------|--4-4-4-4-4------------|
--------------------|--------------------|--4-4-4-4-4------------|
--12----------------|--12r---------------|--2-2-2-2-2------------|
--------------------|--------------------|--2-2-2-2-2------------|



-----------------------|-----------------------|
-----------------------|-----------------------|
--4-4-4-4-4------------|--4-4-4-4-4------------|
--4-4-4-4-4------------|--4-4-4-4-4------------|
--2-2-2-2-2------------|--2-2-2-2-2------------|
--2-2-2-2-2------------|--2-2-2-2-2------------|



--------------------------------------|----------------------------|
--------------------------------------|----------------------------|
--4-4-4-4-4--4-4-4-4--4--4--4---------|--4-4-4-4-4-------5--5-5----|
--4-4-4-4-4--4-4-4-4--4--4--4---------|--4-4-4-4-4--4-4--5--5-5----|
--2-2-2-2-2--2-2-2-2--2--2--2---------|--2-2-2-2-2--4-4--3--3-3----|
--2-2-2-2-2--2-2-2-2--2--2--2---------|-------------2-2------------|



----------------------------|----------------------------|
----------------------------|----------------------------|
--4-4-4-4-4-------5--5-5----|--4-4-4-4-4-------5--5-5----|
--4-4-4-4-4--4-4--5--5-5----|--4-4-4-4-4--4-4--5--5-5----|
--2-2-2-2-2--4-4--3--3-3----|--2-2-2-2-2--4-4--3--3-3----|
-------------2-2------------|-------------2-2------------|



----------------------------|-------------------------|
----------------------------|-------------------------|
--4-4-4-4-4-------5--5-5----|-----------9---9--9-9----|
--4-4-4-4-4--4-4--5--5-5----|--7---7-7--9---9--9-9----|
--2-2-2-2-2--4-4--3--3-3----|--7---7-7--7---7--7-7----|
-------------2-2------------|--5---5-5--7---7--7-7----|



--------------------------------|-------------------------|
--------------------------------|-------------------------|
--------------10---10--10-10----|-----------9---9--9-9----|
--10---10-10--10---10--10-10----|--7---7-7--9---9--9-9----|
--10---10-10--8----8---8--8-----|--7---7-7--7---7--7-7----|
--8----8--8---8----8---8--8-----|--5---5-5--7---7--7-7----|



--------------------------------|-------------------------|
--------------------------------|-------------------------|
--------------12---12--12-12----|-----------9---9--9-9----|
--10---10-10--12---12--12-12----|--7---7-7--9---9--9-9----|
--10---10-10--10---10--10-10----|--7---7-7--7---7--7-7----|
--8----8--8---10---10--10-10----|--5---5-5--7---7--7-7----|



--------------------------------|-------------------------|
--------------------------------|-------------------------|
--------------10---10--10-10----|-----------9---9--9-9----|
--10---10-10--10---10--10-10----|--7---7-7--9---9--9-9----|
--10---10-10--8----8---8--8-----|--7---7-7--7---7--7-7----|
--8----8--8---8----8---8--8-----|--5---5-5--7---7--7-7----|



--------------------------------------|-------------------------|
--------------------------------------|--0---0----5---5--5-5----|
--------------12-12-12-12-12-12-12/---|--2---2-2--4---4--4-4----|
--10---10-10--12-12-12-12-12-12-12/---|--2---2-2--2---2--2-2----|
--10---10-10--10-10-10-10-10-10-10/---|--0---0-0--2---2--2-2----|
--8----8--8---------------------------|--0---0----0---0--0-0----|



-------------------------|-------------------------|
--3---3-3----------------|-------------------------|
--5---5-5----------------|-----------9---9--9-9----|
--5---5-5--5---5--5-5----|--7---7-7--9---9--9-9----|
--3---3-3--3---3--3-3----|--7---7-7--7---7--7-7----|
--3---3-3--1---1--1-1----|--5---5-5--7---7--7-7----|



--------------------------------|-------------------------|
--------------------------------|-------------------------|
--------------12---12--12-12----|-----------9---9--9-9----|
--10---10-10--12---12--12-12----|--7---7-7--9---9--9-9----|
--10---10-10--10---10--10-10----|--7---7-7--7---7--7-7----|
--8----8--8---10---10--10-10----|--5---5-5--7---7--7-7----|



--------------------------------|-------------------------|
--------------------------------|-------------------------|
--------------10---10--10-10----|-----------9---9--9-9----|
--10---10-10--10---10--10-10----|--7---7-7--9---9--9-9----|
--10---10-10--8----8---8--8-----|--7---7-7--7---7--7-7----|
--8----8--8---8----8---8--8-----|--5---5-5--7---7--7-7----|



--------------------------------------|-----------------------------|
--------------------------------------|-----------------------------|
--------------12-12-12-12-12-12-12/---|--4-4-x-4-x-4-x-4-x----------|
--10---10-10--12-12-12-12-12-12-12/---|--4-4-x-4-x-4-x-4-x-3-3------|
--10---10-10--10-10-10-10-10-10-10/---|--2-2-x-2-x-2-x-2-x-3-3------|
--8----8--8---------------------------|--------------------1-1------|



--------------------------------|-----------------------------|
--------------------x-----------|-----------------------------|
--4-4-x-4-x-4-x-4-x-x-7--x-x-7--|--4-4-x-4-x-4-x-4-x----------|
--4-4-x-4-x-4-x-4-x-x-7--x-x-7--|--4-4-x-4-x-4-x-4-x-3-3------|
--2-2-x-2-x-2-x-2-x-x-5--x-x-5--|--2-2-x-2-x-2-x-2-x-3-3------|
--------------------------------|--------------------1-1------|



-----------------------------4--|-----------------------------|
--------------------x--------3--|-----------------------------|
--4-4-x-4-x-4-x-4-x-x-7--x-x-4--|--4-4-x-4-x-4---4-x----------|
--4-4-x-4-x-4-x-4-x---7--x-x----|--4-4-x-4-x-4---4-x-3-3------|
--2-2-x-2-x-2-x-2-x---5--x-x----|--2-2-x-2-x-2-x-2-x-3-3------|
--------------------------------|--------------------1-1------|



-----------------------------4--|--------------------------|------------------|
-----------------------------3--|--------------------------|------------------|
--4-4-x-4-x-4-x-4-x-x-7--x-x-4--|--4-4-4-4--4--4--4--------|------------------|
--4-4-x-4-x-4-x-4-x-x-7--x-x----|--4-4-4-4--4--4--4-5------|------------------|
--2-2-x-2-x-2-x-2-x-x-5--x-x----|--2-2-2-2--2--2--2-3------|------------------|
--------------------------------|-------------------1------|------------------|



------------------|------------------|------------------||
------------------|------------------|------------------||
------------------|------------------|------------------||
------------------|------------------|------------------||
------------------|------------------|------------------||
------------------|------------------|------------------||
Get this song at amazon.com      Ebay     Ringtones Ringtones  


Learn to play: Songwriting, Piano, Harmonica, Guitar
Also available at Muzikum: Incubus - New Skins lyrics

Related Incubus Tabs

Trouble In 4 tabs
Drive (Version 2) tabs
Smile Lines tabs
Glass Bass tabs
Adolescents tabs
Quicksand tabs
11 Am Intro tabs
Punchdrunk (intro) tabs
Science Album tabs
Pendulous Threads tabs
Magic Medicine tabs
Drive Live tabs
Made For Tv tabs
Smoking The Herb Again tabs
Admiration tabs
Aqueous Transmission 2 tabs
Freedom tabs
Summer Romance tabs
11am 3 tabs
Second Movement Of The Odyssey tabs


Guitar Tabs









All tabs are property and copyright of their owners. All tabs provided for educational purposes only. Privacy Policy, DMCA