Incubus

New Skin Bass Tabs



More from Incubus

Incubus Tabs
Incubus Chords
Incubus Bass
Incubus Lyrics



Song: New Skin
Artist: Incubus
Album: S.C.I.E.N.C.E.
Tabbed by: PeRchy (perchy@mansonline.net)

This tab is a little correction of the one mailed
by Garrett(g2x) (renchbass@aol.com www.rench.net)

The chorus looks better if you don't slap it and if
you include some ghost notes. Ther were some missed
notes in the second verse too.

p = Pull-off
h = Hammer-on
S = Slap
P = Pop

5 string bass tuned a,e,a,d,g
Intro
p s p s p s p s
G-----------------------------------------|
D-----------------------------------------|
A-----------------------------------------|
E-----------------------------------------|
A-2-2----2-2----2-2-----2-2---------------|

chorus
G-----------------------------------------|
D-----------------------------------------|
A-0h2-2-2-2------0h2-2-2-2-x5-xx5---------|
E-----------x1----------------------------|
A-----------------------------------------|

verse
p sp s s s s s s s s s s
G-0--0----------------------------------------|
D---------------------------------------------|
A---0--0--0-2-2-3-0-0------2nd time add 3-3-3-|
E---------------------------------------------|
A---------------------------------------------|

verse 2
G-----------------------------------------|
D-----------------------------------------|
A-22222----3-3-3--------------------------|
E-------x1--------------------------------|
A-----------------------------------------|

chorus 2
G-----------------------------------------|
D-----------------------------------------|
A-----------------3-----------------------|
E-5-------0----------------1--------------|
A-----------------------------------------|

bass solo
G-----------------------------------------|
D-----------------------------------------|
A-3-3-0-4-4-0-1-2-------------------------|
E-----------------0-3-4-5-----------------|
A-----------------------------------------|

bass sol0 (part 2) (follow snare drum)
s s s s s s s s s s
G-----------------------------------------|
D-----------------------------------------|
A-2-2-2-2-2-0-3-3-3-3---------------------|
E-----------------------------------------|
A-----------------------------------------|

outro
s s s s s s s
G-----------------------------------------|
D-----------------------------------------|
A-2-2-2-2-2-2-7---------------------------|
E-----------------------------------------|
A-----------------------------------------|

You should be able to figure out the order.

-PeRchy-






Get this song at amazon.com      Ebay     Ringtones Ringtones  


Learn to play: Songwriting, Piano, Harmonica, Guitar
Also available at Muzikum: Incubus - New skin lyrics

Related Incubus Bass Tabs

Magic Medicine bass
Smile Lines bass
Take Me To Your Leader bass
Aqueous Transmission bass
Wish You Were Here[100% Correct] bass
Pardon Me bass
Dig bass
Made For A Tv Movie bass
Science bass
Mexico bass
Leech bass
Nice To Know You bass
Da Warmth bass
Privelege bass
Talk Shows On Mute bass
Wish You Where Here bass
Speak Free bass
Under My Umbrella bass
Nebula bass
Trouble In 421 bass


Guitar Tabs









All tabs are property and copyright of their owners. All tabs provided for educational purposes only. Privacy Policy, DMCA