Incubus

Neither Of Us Can See Tabs



More from Incubus

Incubus Tabs
Incubus Chords
Incubus Bass
Incubus Lyrics

incubus -neither of us can see



i gave mostly the basics of the song, because i dont really like to

tab songs out, and i havent been able to find this one anywhere

and i thought it deserved to be.





intro/verse

e-------------------------------------------------0-------

b---------------------------------------------------4-----

g--------------6----------6------------6------------------

d-----------5----------5----5-------5----------5----------

a--------0-------0----------------0------0----------------

e-------------------3------------------------3------------







chorus



e------5--------6-------8------------------------------------

b------6--------6-------8------------------------------------

g------7--------7-------9------------------------------------

d------7--------8-------10-----------------------------------

a------5--------8-------10-----------------------------------

e---------------6-------8------------------------------------







solo



e----5/3-3--1-3--1-3--5-3-5-3-5-6-5-3------------------------

b-------------------------------------6-4-3--(3)15-3(13)-----

g------------------------------------------------------------

d------------------------------------------------------------

a------------------------------------------------------------

e------------------------------------------------------------



e--3/5-6-5-6-5-------6---6---6---6---8---10---10---10--10-11-

b---------------7--8---8---8---8---8---8----8----8-----------

g------------------------------------------------------------

d------------------------------------------------------------

a------------------------------------------------------------

e------------------------------------------------------------



e----10-13-------13------------------------------------------

b----------10-11-----13---11-14-15---------------------------

g------------------------------------------------------------

d------------------------------------------------------------

a------------------------------------------------------------

e------------------------------------------------------------

Get this song at amazon.com      Ebay     Ringtones Ringtones  


Learn to play: Songwriting, Piano, Harmonica, Guitar
More Incubus lyrics available at Muzikum

Related Incubus Tabs

Like A Virgin Cover tabs
Warning Correct tabs
Smoking The Herb Again tabs
Under My Umbrella tabs
Summer Romance Intro tabs
Nowhere Fast Bridge tabs
Aqueous Transmission tabs
Pendulous Threads tabs
A Certain Shade Of Green (acoustic) tabs
I Miss You tabs
Light Grenades tabs
Pistola tabs
11am2 tabs
When It Comes tabs
Leech tabs
Idiotbox tabs
Aqueous Transmission3 tabs
11 Am Intro tabs
Pardon Me Acoustic Intro tabs
Drive7 tabs


Guitar Tabs









All tabs are property and copyright of their owners. All tabs provided for educational purposes only. Privacy Policy, DMCA